Enviado por:
Anonimo

La Ley, Doble Opuesto

Imprimir
Intro
es el bajo solo,luego la guitarra entra con estos
acordes(no se como se les diga,pero se oyen bien)
  G F C
|-------|
|-8-6---|utilizen algo de distor con un poco
|-7-5-5-|de delay para el efecto
|-5-3-5-|
|-5-3-3-|
|-------|

Solo
Este es el solo ke se oye en la canción, se repite en unas
partes oiganla para saber en donde
*-hagan ke chille esta nota
~-vibren la nota normal
|----------------------------------------|
|----------------------------------------|
|-5/7-777~-5-7-7/9-5~-5*5*5*-------------|
|----------------------------5h7-5h7-5~~-|
|----------------------------------------|
|----------------------------------------|

Coro
  A C
|-----|
|-----|
|---5-|después de estos acordes van unos arreglos
|-7-5-|
|-7-3-|
|-5---|

Este es el orden de los arreglos oigan la rola para
ke sepan donde van
|---------------|-8-----------------|
|---------------|---10-8---8--------|
|---5---5-9-5---|--------9---9-7-5~-|
|-7---7-------7-|-------------------|
|---------------|-------------------|
|---------------|-------------------|

Después en la parte donde se oye un teclado inventen
algo con la escala de A(es lo ke yo hago),son los acordes
del coro.

Después les mando más tabs de la ley,ojala y les guste
cualkier comentario o peticion escribanme

Fuente original: LaCuerda
Colaborador original: El Dante [[email protected]]
Aviso: Este fichero es trabajo propio de su transcriptor y representa su interpretación personal de la canción. El material contenido en esta página es para exclusivo uso privado, por lo que se prohibe su reproducción o retransmisión, así como su uso para fines comerciales.

Califica esta canción


Comentarios en Facebook