Enviado por:
Anonimo

La Ley, Doble Opuesto

Imprimir
Bueno aquí tienen el bajo  que esta excelente, así que aquí les va 

principio
1-------------------------------------------------------------------
2-------------------3-2-------------------------------3-2-----------
3----------------------3-3-33-1--------------------------3-3-33-1---
4-3-3--3-3-333-3-11-------------1---3-3--3-3-333-3-11-------------1-


intermedio
  siempre que tu ...
1---------------------------------
2---------------------------------
3-----------------------2--2-221--
4-3-3--3-3-333-3-1-1-1-1--------1-


coro:

y ya no tocas....
1---------------------------------
2---------------------------------
3---------------------------------
4-5-5--5-5-555-7-8-8-78-8-88-7-5--

Fuente original: LaCuerda
Colaborador original: Carlos Cárcamo [[email protected]]
Aviso: Este fichero es trabajo propio de su transcriptor y representa su interpretación personal de la canción. El material contenido en esta página es para exclusivo uso privado, por lo que se prohibe su reproducción o retransmisión, así como su uso para fines comerciales.

Califica esta canción


Comentarios en Facebook