Enviado por:
Anonimo

La Ley, Dia Cero (unplugged)

Imprimir
pm - palm mute – tocar la cuerda solo poniendo el dedo de 
la mano izquierda sin llegar a un armónico.


 Intro con guitarra...
  Gm           Gm           F 
G|------------|------------|------------|-------------|
D|------------|------------|------------|-------------|
A|----------3-|----5-----5-|----3-----3-|---3---310---|
E|3--3-6-3-3-3|3-3---3-3--3|1-1---1-1—-1|1-1-1-1---310|
 *   7 veces  *  4 veces   *         2  veces         *
 
  Gm 
G|------------|------------||
D|------------|------------||
A|----------3-|----------33||
E|3--3-6-3-3-3|3--3-6-3-3--||

  Creo creer...
  Gm           F            Am
G|------------|------------|------------||
D|------------|------------|------------||
A|----------3-|----3-----3-|00---0-0---0||
E|3--3-6-3-3-3|1-1---1-1—-1|---0-----0--||
 *  4 veces   *   2 veces  *

  En ese camino... ( coro )
  Bb           Eb           Dm
G|------------|------------|-------------||
D|------------|------------|-------------||
A|------------|6---6-6---6-|5-5---5-5---5||
E|6---6-6---6-|------------|--pm-5--pm-5-||
*   2 veces  *

 Repite toda la rola igual...

 Dudas, preguntas o correcciones escribe a: [email protected]

Fuente original: LaCuerda
Colaborador original: Israel Sánchez Padilla [[email protected]]
Aviso: Este fichero es trabajo propio de su transcriptor y representa su interpretación personal de la canción. El material contenido en esta página es para exclusivo uso privado, por lo que se prohibe su reproducción o retransmisión, así como su uso para fines comerciales.

Califica esta canción


Comentarios en Facebook