Enviado por:
Anonimo

La Ley, Delirando

E-mail : [email protected]
Artista: La Ley
Titulo: Delirando
Album: Unplugged
tabbed: 2 enero 2002

standard tunning


intro::

     guit:1
 e|-------------------------------------------------------------------------
 B|--------------------------------3h5--------------------------------------
 G|-----------2-----2h3-2h3-3-----------------------------------------------
 D|---2h5-2----5------------------------------------------------------------
 A|-------------------------------------------------------------------------
 E|-------------------------------------------------------------------------
             
    guit:1
 e|-------------------------------------------------------------------------
 B|-------------------------------3-----------------------------------------
 G|-----------2-----2h3-2h3-3-----------------------------------------------
 D|---2h5-2----5------------------------------------------------------------
 A|-------------------------------------------------------------------------
 E|-------------------------------------------------------------------------
 (intro se repite frecuentemente)
 
         Perdoname voy a buscar un mundo sin lamento que sujetar-recuerdame 
         de no voltear no quiero arrpentirme o petrificar
 


Em  G   Em   G
           

    CORO:
      Estoy llegando donde nunca fui  
 e--------------------------------------------------------------------------
 B--------------------------------------------------------------------------
 G-------------2-2p0--------------------------------------------------------
 D-----2---5----------2-----------------------------------------------------
 A-------------------------------------5-4----------------------------------
 E--------------------------------------------------------------------------
(esto lo sigues repitiendo durante el coro)
        Delirando noooooooooooooooooooo
          
       (aqui se repite el intro hasta al terminar el verso)
  Despiertame,  para llegar...................................................

 Despues el puente 
     Em G            A
 Todos los dias predican asi-te lo digo yoohoooo
             
 (despues el coro repite el intro)

        nota: la parte donde mauricio se queda tocando el tambor/esa parte se 
              toca el intro/tambien el intro tiene un cambio que es lo ultimo
              en hammer para que se escuche bien esta rola se necesitan 
              dos guitarras ustedes ya sabran como compartirla.

Fuente original: LaCuerda
Colaborador original: Patrick Martinez [[email protected]]
Aviso: Este fichero es trabajo propio de su transcriptor y representa su interpretación personal de la canción. El material contenido en esta página es para exclusivo uso privado, por lo que se prohibe su reproducción o retransmisión, así como su uso para fines comerciales.

Califica esta canción


Comentarios en Facebook