Enviado por:
Anonimo

La Ley, Cielo Market

Sé que ya hay varias transcripciones de esta rola, pero... considero que 
esta es la más sencilla y la mejor... disfrutenla!!!



Intro:


Guitar 1:

        A5                 G                  D               A5

e-----------------|-----------------|-----------------|-----------------|
B----0-----0------|----3-----3------|----3-----3------|----0-----0------|
G------2-----2----|------0-----0----|------2-----2----|------2-----2----|
D--------2-----2--|--------0-----0--|--0-----0-----0--|--------2-----2--|  x 2
A--0--------------|--2--------------|-----------------|--0--------------|
E-----------------|-----------------|-----------------|-----------------|


Guitar 2:

e-----------------|-------5-----5---|-------5-----5---|-----------------|
B-----------------|-----0-----0-----|-----0-----0-----|-----------------|
G-----------------|---7-----7-------|---6-----6-------|-----------------|
D-----------------|-----------------|-----------------|-----------------|   x 2 
A-----------------|-----------------|-----------------|-----------------|
E-----------------|-----------------|-----------------|-----------------|

                                                              Cha... da... de... he!!!

A5  C  D  A5           C  D  
          Uh uh. Uh uh.


Verso 1:

A5           G                D            A5
Algunos Disfrazan Sus Crudas Ganas De Figurar.
A5           G                    D             A5
Corazones Ardientes, Estrellas Calientes Por Papel.
A5                        C D 
Por Mientras Se Come Tu Imagen
             A5
Algún Sucio Magazine
A5                  C                  D 
Que Estampa En Tu Frente Un Precio De Moda. 



Coro 1:

 A5
Cielo Me Has Marcado
                      C     D
Como La Estrella Que Logra Ver Su Estela.
 A5                  C
Cielo Me Has Mandado
                D
A Sonreir Al Morir. 



Verso 2:

A5             G             D                A5
Despierten Lectores De Ese Trance Que Los Masturba.
 A5              G    D
Mientras Leen Farándula
            A5
Santito llegó.
 A5             C
Los Rumores De Mil Amores
     D                       A5
Son Sólo Una Mentira Que Se Vende Bien.
A5                 C
Y Si Existe Algo Cierto,
              D
A Quién Le Importa... 



Coro 2:

 A5
Cielo Me Has Marcado
                      C     D
Como La Estrella Que Logra Ver Su Estela.
 A5                 C   
Me Has Petrificado
                  D  
Como Una Estatua Como Una Linda Cara.
  A5                  C
Cielo Me Has Ordenado
                  D
A Ser Verdugo De Mi Propia Cabeza.
  A5                 C
Cielo Me Has Mandado 
                D
A Sonreir Al Morir. 


Pre-solo:

        A5                 G                  D               A5

e-----------------|-----------------|-----------------|-----------------|
B----0-----0------|----3-----3------|----3-----3------|----0-----0------|
G------2-----2----|------0-----0----|------2-----2----|------2-----2----|
D--------2-----2--|--------0-----0--|--0-----0-----0--|--------2-----2--|  x 2
A--0--------------|--2--------------|-----------------|--0--------------|
E-----------------|-----------------|-----------------|-----------------|


Guitar 2:

e-----------------|-------5-----5---|-------5-----5---|--------0--------|
B-----------------|-----0-----0-----|-----0-----0-----|--------0--------|
G-----------------|---7-----7-------|---6-----6-------|--------2~-------|
D-----------------|-----------------|-----------------|--------2~-------|   x 2 
A-----------------|-----------------|-----------------|--------0--------|
E-----------------|-----------------|-----------------|--------0--------|


Solo:

   A5                   G    D                        A5

e--10s12-12-12-12-14-12-10~--101010-10-10-10-10-12-10-9~---------|
B----------------------------------------------------------------|
G----------------------------------------------------------------|
D----------------------------------------------------------------|  x 2
A----------------------------------------------------------------|
E----------------------------------------------------------------|
 

Coro 2:

 A5
Cielo Me Has Marcado
                      C     D
Como La Estrella Que Logra Ver Su Estela.
 A5                 C   
Me Has Petrificado
                  D  
Como Una Estatua Como Una Linda Cara.
  A5                  C
Cielo Me Has Ordenado
                  D
A Ser Verdugo De Mi Propia Cabeza.
  A5                 C
Cielo Me Has Mandado 
                D    C  D  C  A
A Sonreir Al Morir.


Dudas, correcciones... todas a mi E-mail, OK!!!

Fuente original: LaCuerda
Colaborador original: Ramón Edgardo Vásquez Florentino [[email protected]]
Aviso: Este fichero es trabajo propio de su transcriptor y representa su interpretación personal de la canción. El material contenido en esta página es para exclusivo uso privado, por lo que se prohibe su reproducción o retransmisión, así como su uso para fines comerciales.

Califica esta canción


Comentarios en Facebook