Enviado por:
Anonimo

La Ley, Cielo Market

El Intro es solo Am,G,D y Am
El punteo es asi

|-------------------0-------------0------------------|
|---0-----0---3-------3-------3-----3-----0-----0----|
|-----2---------0-------0---2---2-----2-----2-----2--|
|-------2---------0-------0-------------------2----2-|2 veces
|-0---------2---------------------------0------------|
|----------------------------------------------------|


Después sigue el Intro 2 que es el coro
*-toquen estos acordes con el ritmo de la canción
|-------------------------|
|-------------------------|
|-------------------------|
|-2*-4*-5*-7*-------------|
|-0*-2*-3*-5*-0-5-3-------|
|-------------------0-3h4-|

Después es el verso que son los mismos acordes del intro,
yo los toco con estos acordes ke sinceramente no se como
se llamen pero se oyen bien, solo con un rasgueo
  Am G D  Am
|------------|
|-10-8-15-10-|
|-9--7-14-9--|
|-7--5-12-7--|
|-7--5-12-7--|
|------------|


Solo
Aki esta el solo,es lo más parecido ke pude hacer
|--------------------------------|
|-10~-10-12-13-8~--6~-8-6-8-10~~-|
|--------------------------------|
|--------------------------------|
|--------------------------------|
|--------------------------------|

Comentarios o peticiones a 
[email protected]

Fuente original: LaCuerda
Colaborador original: El Dante [[email protected]]
Aviso: Este fichero es trabajo propio de su transcriptor y representa su interpretación personal de la canción. El material contenido en esta página es para exclusivo uso privado, por lo que se prohibe su reproducción o retransmisión, así como su uso para fines comerciales.

Califica esta canción


Comentarios en Facebook