Enviado por:
Anonimo

La Ley, A Veces

Imprimir
este tema lo encontre en el cd Grandes exitos.
Cualquier duda escribanme.  

1|5-5-5-5-5-5-4-4-4-4-4-4-4
2|5-5-5-5-5-5-5-5-5-5-5-5-5
3|6-6-6-6-6-6-6-6-6-6-6-6-6
A Veces Cuando Yo Me Pierdo

1|5-5-5-5-5-5-4-4-4-4-4-7-7
2|5-5-5-5-5-5-5-5-5-5-5-5-5
3|6-6-6-6-6-6-6-6-6-6-6-6-6
Y Busco Una Motivacion

1|5-5-5-5-5-5-4-4-4-4-4-4-4
2|5-5-5-5-5-5-5-5-5-5-5-5-5
3|6-6-6-6-6-6-6-6-6-6-6-6-6
Las Cosas Caen Y No Las Siento

1|5-5-5-5-5-5-4-4-4-4-4-7-7
2|5-5-5-5-5-5-5-5-5-5-5-5-5
3|6-6-6-6-6-6-6-6-6-6-6-6-6
No Se A Donde Voy.

5|----6-----6-
4|--7-----6---
3|7-----4-----
Buscame hi he hi he hi he
5|----6-----6-
4|--7-----6---
3|7-----4-----
Dulce Amor ho ho ho ho
5|----6-----6-
4|--7-----6---
3|7-----4-----
Buscame hi he hi he hi he
5|----6-----6-
4|--7-----6---
3|7-----4-----
Dulce Amor ho ho ho ho

1|5-5-5-5-5-5-4-4-4-4-4-4-4
2|5-5-5-5-5-5-5-5-5-5-5-5-5
3|6-6-6-6-6-6-6-6-6-6-6-6-6
A Veces Cuando Pasa El Tiempo 

1|5-5-5-5-5-5-4-4-4-4-4-7-7
2|5-5-5-5-5-5-5-5-5-5-5-5-5
3|6-6-6-6-6-6-6-6-6-6-6-6-6
Y Veo El Cielo Oscurecer

1|5-5-5-5-5-5-4-4-4-4-4-4-4
2|5-5-5-5-5-5-5-5-5-5-5-5-5
3|6-6-6-6-6-6-6-6-6-6-6-6-6
Las Cosas Pasan Y No Las Siento

1|5-5-5-5-5-5-4-4-4-4-4-7-7
2|5-5-5-5-5-5-5-5-5-5-5-5-5
3|6-6-6-6-6-6-6-6-6-6-6-6-6
Ya No Es Como El Ayer.

1|5-5-5-5-5-5-4-4-4-4-4-4-4
2|5-5-5-5-5-5-5-5-5-5-5-5-5
3|6-6-6-6-6-6-6-6-6-6-6-6-6
A Veces Cuando Pasa El Tiempo 

1|5-5-5-5-5-5-4-4-4-4-4-7-7
2|5-5-5-5-5-5-5-5-5-5-5-5-5
3|6-6-6-6-6-6-6-6-6-6-6-6-6
Y Veo El Cielo Oscurecer

1|5-5-5-5-5-5-4-4-4-4-4-4-4
2|5-5-5-5-5-5-5-5-5-5-5-5-5
3|6-6-6-6-6-6-6-6-6-6-6-6-6
Las Cosas Caen Y No Las Siento

1|5-5-5-5-5-5-4-4-4-4-4-7-7
2|5-5-5-5-5-5-5-5-5-5-5-5-5
3|6-6-6-6-6-6-6-6-6-6-6-6-6
No Se A Donde Voy.

5|----6-----6-
4|--7-----6---
3|7-----4-----
Buscame hi he hi he hi he
5|----6-----6-
4|--7-----6---
3|7-----4-----
Dulce Amor ho ho ho ho
5|----6-----6-
4|--7-----6---
3|7-----4-----
Buscame hi he hi he hi he
5|----6-----6-
4|--7-----6---
3|7-----4-----
Dulce Amor ho ho ho ho
5|----6-----6-
4|--7-----6---
3|7-----4-----
Buscame hi he hi he hi he
5|----6-----6-
4|--7-----6---
3|7-----4-----
Dulce Amor ho ho ho ho
5|----6-----6-
4|--7-----6---
3|7-----4-----
Buscame hi he hi he hi he
5|----6-----6-
4|--7-----6---
3|7-----4-----
Dulce Amor ho ho ho ho

Termina rasgueando algo asi:

1|0-0-0-0-0-0-4-4-4-4-4-4-4-0-0-0-0-0-0-4-4-4-4-7-7-7
2|2-2-2-2-2-2-5-5-5-5-5-5-5-2-2-2-2-2-2-5-5-5-5-5-5-5
3|2-2-2-2-2-2-6-6-6-6-6-6-6-2-2-2-2-2-2-6-6-6-6-6-6-6
 
asi hasta que termina.

Fuente original: LaCuerda
Colaborador original: daniel [[email protected]]
Aviso: Este fichero es trabajo propio de su transcriptor y representa su interpretación personal de la canción. El material contenido en esta página es para exclusivo uso privado, por lo que se prohibe su reproducción o retransmisión, así como su uso para fines comerciales.

Califica esta canción


Comentarios en Facebook