Enviado por:
Anonimo

La Ley, Aqui

Esta canción es muy fácil, porque
va tocada con los acordes de la guitarra
y porque los grooves no son nada del
otro mundo.

Bueno la canción va así:

RIFF 1 (Intro):

G |---------------------------------------------------|
D |-(0)-(0)-(0)-(0)-(0)-(0)-(0)-(0)-------------------|
A |--5---5---5---5---5---5---5---5--------------------|
E |---------------------------------3-3-3-3-3-3-3-3---|

Las notas en parentesis, significan que puedes dar la
nota en ese traste también. El intro se repite 2 veces
y luego entra el siguiente riff que es el del Verso:

RIFF 2 (Verso):

G |---------------------------------------------------|
D |---------------------------------------------------|
A |-5-5--55-5--5-5--55-5------------------------------|
E |-----------------------3-3--33-3/10--3-3--3-3--33--|

ESTO SE REPITE 2 VECES, Y LUEGO VA EL PRE-CORO.

RIFF 3 (Pre-Coro):

G |---------------------------------------------------|
D |-(2)-(2)-(2)-(2)-(2)-(2)-(2)-(2)-------------------|
A |---------------------------------------------------|
E |--0---0---0---0---0---0---0---0--5-5-5-5-----------|

ESTO VA ANTES DE CADA CORO. DEBES DE FIJARTE BIEN, 
PORQUE A VECES SE REPITE DOS VECES.

RIFF 4 (Coro):

G |---------------------------------------------------|
D |---------------------------------------------------|
A |-5-5-5-5-5-5-5-5-----------------------------------|
E |-----------------3-3-3-3-3-3-3-3-0-0-0-0-0-0-0-0---|

G |---------------------------------------------------|
D |---------------------------------------------------|
A |---------------------------------------------------|
E |-5-5-5-5-5-5-5-5-----------------------------------|

RIFF 5 (Pos-Coro):

G |---------------------------------------------------|
D |---------------------------------------------------|
A |-5-5-5-5-------------------------------------------|
E |---------3-3-3-3-----------------------------------|

EL ORDEN EN QUE VAN TOCADOS LOS RIFFS ES EL SIGTE.:

RIFF 1 (Intro):    2x
RIFF 2 (Verso):    2x
RIFF 3 (Pre-Coro): 1x
RIFF 2 (Verso):    2x
RIFF 3 (Pre-Coro): 1x
RIFF 4 (Coro):     1x
RIFF 5 (Pos-Coro): 1x
RIFF 2 (Verso):    2x
RIFF 3 (Pre-Coro): 2x
RIFF 4 (Coro):     1x
RIFF 5 (Pos-Coro): 1x
RIFF 4 (Coro):     1x
RIFF 5 (Pos-Coro): 1x
-El Bajo se Silencia-
RIFF 4 (Coro):     1x
RIFF 5 (Pos-Coro): 1x

Fuente original: LaCuerda
Colaborador original: Oliver Dominguez =============================== www.atame.org =============================== Este fichero es trabajo propio de su transcriptor y representa su interpretación personal de la canción. El usuario se compromete a utilizar este material únicamente para su aprendizaje y estudio personal. Para poder incluir este fichero en otro sitio Web, es necesario mencionar el origen del mismo [www.atame.org]
Aviso: Este fichero es trabajo propio de su transcriptor y representa su interpretación personal de la canción. El material contenido en esta página es para exclusivo uso privado, por lo que se prohibe su reproducción o retransmisión, así como su uso para fines comerciales.

Califica esta canción


Comentarios en Facebook