Enviado por:
Anonimo

La Ley, Aqui

Saludos desde Venezuela aqui les mando esto a ver que tal !....


|-2--3--3--3--3--3--3--3--|--------------------------|
|-3--3--3--3--3--3--3--3--|-3--3--3--3--3--3--3--3---|
|-2--2--2--2--2--2--2--2--|-0--0--0--0--0--0--0--0---|
|-0--0--0--0--0--0--0--0--|-0--0--0--0--0--0--0--0---|
|-------------------------|--------------------------|
|-------------------------|-3--3--3--3--3--3--3--3---|
                                                    
|-10-10-10-10-10-10-10-10-|-10-10-10-10-10-10-10-10--|
|-10-10-10-10-10-10-10-10-|-10-10-10-10-10-10-10-10--|
|-7--7--7--7--7--7--7--7--|-7--7--7--7--7--7--7--7---|
|-------------------------|--------------------------|
|-------------------------|--------------------------|
|-------------------------|--------------------------|

Verso:

       D                           G
|--------------------|---------------------------------
|-3--3-3-3--3--3-3-3-|-3---3---3---3---3---3---3---3---
|-2--2-2-2--2--2-2-2-|-0---0---0---0---0---0---0---0---
|-0--0-0-0--0--0-0-0-|-0---0---0---0---0---0---0---0---
|--------------------|-x---x---x---x---x---x---x---x---
|--------------------|-3---3---3---3---3---3---3---3---

El hombre esta acercandose hacia el encuentro con la frontera
El cambio una decision la puerta abierta hacia una nueva era

Pre coro:

Em                    A
|-0-----------------|---------------|
|-0-----------------|-2-------------|
|-0-----------------|-2-------------|
|-2-----------------|-2-------------|
|-2-----------------|-0-------------|
|-0-----------------|---------------|

Un mundo que gira al reves pretende que navegue en el 
ahogando is ideas.

Verso 2: 

     D                           G
|--------------------|---------------------------------
|-3--3-3-3--3--3-3-3-|-3---3---3---3---3---3---3---3---
|-2--2-2-2--2--2-2-2-|-0---0---0---0---0---0---0---0---
|-0--0-0-0--0--0-0-0-|-0---0---0---0---0---0---0---0---
|--------------------|-x---x---x---x---x---x---x---x---
|--------------------|-3---3---3---3---3---3---3---3---

El ruido ambiente y soledad de la ciudad nos aislan de todos.

Por eso comence a escabar para encontrar los mil y un tesoros.  

pre coro 2: 

Em                    A
|-0-----------------|---------------|
|-0-----------------|-2-------------|
|-0-----------------|-2-------------|
|-2-----------------|-2-------------|
|-2-----------------|-0-------------|
|-0-----------------|---------------|

El mundo que gira al reves pretende sumergirme en el ahogando mis ideas. 


Coro:

D   -   G   -  Em  -  A

Aqui tengo el presentimiento.
Aqui que nada voy arrastrar 
desde aqui solo voy a vivir mi hoy y ahora. 

Verso 3: 

D                           G
|--------------------|---------------------------------
|-3--3-3-3--3--3-3-3-|-3---3---3---3---3---3---3---3---
|-2--2-2-2--2--2-2-2-|-0---0---0---0---0---0---0---0---
|-0--0-0-0--0--0-0-0-|-0---0---0---0---0---0---0---0---
|--------------------|-x---x---x---x---x---x---x---x---
|--------------------|-3---3---3---3---3---3---3---3---

Lamento hay en mi corazon no es imaginacion es verdadero.

Mientras el tiempo anucia que por un segundo casi fuy un señuelo.

Pre coro:
Em                    A
|-0-----------------|---------------|
|-0-----------------|-2-------------|
|-0-----------------|-2-------------|
|-2-----------------|-2-------------|
|-2-----------------|-0-------------|
|-0-----------------|---------------|

El mundo que gira al reves pretende encienda en el quemando mis ideas.
Cuando hasta un ciego puede ve que nos callamos sin saber perdiendonos la vuelta.

Coro: (X2)

D   -   G   -  Em  -  A

Aqui tengo el presentimiento.
Aqui que nada voy arrastrar 
desde aqui solo voy a vivir mi hoy y ahora. 


Interludio(x2):

|-------------------------|--------------------------|
|-------------------------|--------------------------|
|-------------------------|--------------------------|
|-----------------3p0-----|--------------3-5-5b-~~---|
|-3h5-5--3h5-5-5----------|-3h5-5--3h5-5-------------|
|-------------------------|--------------------------|

Solo: 
  D                         G
|-------------------------|--------------------------|
|-------------------------|--------------------------|
|---7--9--11-14-11-9--7-7h|h9--4--4--4--4------------|
|---0--0--0--0--0--0--0-0-|-0--0--0--0--0------------|
|-------------------------|--------------------------|
|-------------------------|--------------------------|

  Em                        A
|-------------------------|--------------------------|
|-------------------------|--------------------------|
|----9--11-12-16-12-11-9--|-7--6--9--7--6--9---------|
|----0--0--0--0--0--0--0--|-0--0--0--0--0--0---------|
|-------------------------|--------------------------|
|-------------------------|--------------------------|

Se tocan las notas 2 veces...

Pre Coro

Em                    A
|-0-----------------|---------------|
|-0-----------------|-2-------------|
|-0-----------------|-2-------------|
|-2-----------------|-2-------------|
|-2-----------------|-0-------------|
|-0-----------------|---------------|

Cuando hasta un ciego puede ve que nos callamos sin saber perdiendonos la vuelta.

Coro: (X2)

D   -   G   -  Em  -  A

Aqui tengo el presentimiento.
Aqui que nada voy arrastrar 
desde aqui solo voy a vivir mi hoy y ahora. 

Outro

     D                            G
|-------------------------|--------------------------|
|-3--3--3--3--3--3--3--3--|-3--3--3--3--3--3--3--3---|
|-2--2--2--2--2--2--2--2--|-0--0--0--0--0--0--0--0---|
|-0--0--0--0--0--0--0--0--|-0--0--0--0--0--0--0--0---|
|-------------------------|-x--x--x--x--x--x--x--x---|
|-------------------------|-3--3--3--3--3--3--3--3---|
                                                    

|-10-10-10-10-10-10-10-10-|-10-10-10-10-10-10-10-10--|
|-10-10-10-10-10-10-10-10-|-10-10-10-10-10-10-10-10--|
|-7--7--7--7--7--7--7--7--|-7--7--7--7--7--7--7--7---|
|-------------------------|--------------------------|
|-------------------------|--------------------------|
|-------------------------|--------------------------|

Fuente original: LaCuerda
Colaborador original: Juan Carlos Gonzalez [[email protected]]
Aviso: Este fichero es trabajo propio de su transcriptor y representa su interpretación personal de la canción. El material contenido en esta página es para exclusivo uso privado, por lo que se prohibe su reproducción o retransmisión, así como su uso para fines comerciales.

Califica esta canción


Comentarios en Facebook