Enviado por:
Anonimo

La Ley, Animal (unplugged)

Imprimir
Esta y todas las canciones del Mtv Unplugged deben ser tocadas 
por 2 o mas guitarras, una que haga el acompañamiento y la otra los punteos

(Intro punteo)
E|-----------------------------------------|
B|---3p5--5--5--5/7--7/9--9/10--10--10--10-|
G|-----------------------------------------|
D|-----------------------------------------|
A|-----------------------------------------|
E|-----------------------------------------|

E|------------------------------------------------|
B|-9--7--5--7/9--9--7--7--9---------5-------------|
G|---------------------------4--4p6---4p6---4p6p4-|
D|------------------------------------------------|
A|------------------------------------------------|
E|------------------------------------------------|

(Outro punteo)
E|-----------------------------------------|
B|---3p5--5--5--5/7--7/9--9/10--10--10--10-|
G|-----------------------------------------|
D|-----------------------------------------|
A|-----------------------------------------|
E|-----------------------------------------|

E|----------------------------------------|
B|-7p9--7--5--7/9--9--7p9--7--------5-----|
G|---------------------------4--4p6---4p6-|
D|----------------------------------------|
A|----------------------------------------|
E|----------------------------------------|

(Parte lenta)
   A    
E|-------------------------------|
B|-------1-----0-----1-0p1p0-----|
G|-----2---2-----2-----------2---|
D|---2-------2-----2-----------2-|
A|-0-----------------------------|
E|-------------------------------|
   C           Cadd9                         
E|-------------------------------|             
B|-------1-----------1-0p1p0-----|
G|-----0---0-0-----0---------0---|
D|---2------2----2-------------2-|
A|-3-----------3-----------------| 
E|-------------------------------|  Cadd9:032033    
   F
E|-------------------------|
B|-------1-----3-----3-----|
G|-----2---2-----2-----2---|
D|---3-------3-----3-----3-|
A|-3-----------------------|
E|-------------------------|
   G
E|----------7----------------| ahora son dos        E|-----------|
B|------------8--------------| quitarras juntas:    B|-7-8-7/5-5-|
G|--------7-----7------------|                      G|-----------|
D|------9--------------------|                       |           |
A|---10----------------------|                      E|-2-3--2--0-|
E|-7-------------------------|                      B|-----------|
                                                    G|-----------|
(pre-coro)    E            |            A            
E|---0-----0-----0-----0---|---0-----0-----0-----0---|
B|-----0-----0-----0-----0-|-----1-----1-----1-----1-|
G|-------------------------|-------------------------| x2
D|-2-----2-----2-----2-----|-2-----2-----2-----2-----|
A|-------------------------|-------------------------|
E|-------------------------|-------------------------|

(coro)
E|--------------------------------------------------|
B|-----5-----5------------------5-----5-------5-----|
G|-7-6---7-6---7-6-4--------7-6---7-6---7-6-4---6-7-|
D|-------------------7-5-7--------------------------|
A|--------------------------------------------------|
E|--------------------------------------------------|

E|--------------------------------------------------|
B|-----5-----5-------5----------5-----5-------------|
G|-7-6---7-6---7-6-4---6-7--7-6---7-6---7-6-4-------|
D|--------------------------------------------7-5-7-|
A|--------------------------------------------------|
E|--------------------------------------------------|

(Intro punteo) 
(Intro acordes): E A 
    
     E                 A
El ojo de tu amor se va a cerrar
     E                     A         E
y no se si acaso vuelva a despertar
                           A    
Yo sobreexistire con el viejo sol
           E                 A
bajo el manto de alguna autocompasion


Pre-coro:
        E    A
Para creer eh eh eh
           E                         A
que los llantos que ahogan este amanecer

Coro: 
             E 
me haran brotar

E                       A
El mar de norte a sur se va a secar
      E                   A 
y no se si pueda ahora navegar


Pre-coro:       
          E   A
para volver eh eh eh
         E                      A
y los llantos que ahogan este atardecer

Coro:     
             E 
me haran viajar


(Parte lenta)   
Am                C                 Cadd9     F
Solamente solo existo en este altar
                   G
solamentesolo persisto en este amar
   
     E                    A
El hijo de una esta se va acostar
   E                     A
y no se si ahora quiera levantarse


Pre-coro:   
        E      A
para crecer eh eh
        E                          A 
y los llantos que ahogan su anochecer

Coro:     
            E
lo haran gritar

 
Am
Besame y besame
C                F
hasta sentirte  uhhhhnnnn
    G
animal    durab-dariurub-daud

Am
Besame y besame
C            F
hasta morir  solo  
    G
animal  durab-dariurub-daud 

 Am
Besame y besame
C             F
hasta sufrir  uhhhh  
   G
animal  durab-dariurub-daud

Am
Besame y besame
C            F
hasta morir  solo  
    G
animaaaaaaalllll   (Outro punteo)&(Outro acordes): E A

Fuente original: LaCuerda
Colaborador original: jose daniel Castellano y oswaldo Gonzalez [[email protected]]
Aviso: Este fichero es trabajo propio de su transcriptor y representa su interpretación personal de la canción. El material contenido en esta página es para exclusivo uso privado, por lo que se prohibe su reproducción o retransmisión, así como su uso para fines comerciales.

Califica esta canción


Comentarios en Facebook