Enviado por:
Anonimo

La Ley, Animal (unplugged)

Imprimir
Esta y todas las canciones del Mtv Unplugged suenan mucho mejor al 
ser tocadas por 2 o mas guitarras, unas que hagan el acompañamiento 
y otras los arpegios,punteos y solos.
|-------------------------------------------------------------------------|
  *---------------*
  |  p:pull of    |
  |  h:hammer on  |
  |  /:slide      |
  *---------------* 

  *Intro: 0:29
E|-----------------------------------------|
B|---3h5--5--5--5/7--7/9--9/10--10--10--10-|
G|-----------------------------------------|
D|-----------------------------------------|
A|-----------------------------------------|
E|-----------------------------------------|

E|------------------------------------------------|
B|-9--7--5--7/9--9--7--7--9---------5-------------|
G|---------------------------4--4h6---4h6---4h6p4-|
D|------------------------------------------------|
A|------------------------------------------------|
E|------------------------------------------------|

  *Pre-coro: 1:14 / 1:58 / 2:58
              E            |            A            |
E|---0-----0-----0-----0---|---0-----0-----0-----0---|
B|-----0-----0-----0-----0-|-----1-----1-----1-----1-|
G|-------------------------|-------------------------| x2
D|-2-----2-----2-----2-----|-2-----2-----2-----2-----|
A|-------------------------|-------------------------|
E|-------------------------|-------------------------|

  *Coro:  1:29 / 2:13 / 3:13
E|--------------------------------------------------|
B|-----5-----5------------------5-----5-------5-----|
G|-7-6---7-6---7-6-4--------7-6---7-6---7-6-4---6-7-|
D|-------------------7-5-7--------------------------|
A|--------------------------------------------------|
E|--------------------------------------------------|

E|--------------------------------------------------|
B|-----5-----5-------5----------5-----5-------------|
G|-7-6---7-6---7-6-4---6-7--7-6---7-6---7-6-4-------|
D|--------------------------------------------7-5-7-|
A|--------------------------------------------------|
E|--------------------------------------------------|

  * 2:28
   A
E|-------------------------------|
B|-------1-----0-----1-0h1p0-----|
G|-----2---2-----2-----------2---|
D|---2-------2-----2-----------2-|
A|-0-----------------------------|
E|-------------------------------|
   C           Cadd9
E|-------------------------------|
B|-------1-----------1-0h1p0-----|
G|-----0---0-0-----0---------0---|
D|---2------2----2-------------2-|
A|-3-----------3-----------------|
E|-------------------------------|
   F
E|-------------------------|
B|-------1-----3-----3-----|
G|-----2---2-----2-----2---|
D|---3-------3-----3-----3-|
A|-3-----------------------|
E|-------------------------|
   G
E|---7---------------------| ahora son dos        E|-----------|
B|-----8-------------------| quitarras juntas:    B|-7-8-7/5-5-|
G|-7-----7-----------------|                      G|-----------|
D|-------------------------|                       |           |
A|-------------------------|                      E|-2-3--2--0-|
E|-------------------------|                      B|-----------|
                                                  G|-----------|
  *Outro: 4:27
E|-----------------------------------------|
B|---3h5--5--5--5/7--7/9--9/10--10--10--10-|
G|-----------------------------------------|
D|-----------------------------------------|
A|-----------------------------------------|
E|-----------------------------------------|

E|----------------------------------------|
B|-7h9--7--5--7/9--9--7h9--7--------5-----|
G|---------------------------4--4h6---4h6-|
D|----------------------------------------|
A|----------------------------------------|
E|----------------------------------------|

  
  *Intro: E - A 
    
     E                 A
El ojo de tu amor se va a cerrar
     E                     A         E
y no se si acaso vuelva a despertar
                           A    
Yo sobreexistire con el viejo sol
           E                 A
bajo el manto de alguna autocompasion


Pre-coro:
        E    A
Para creer eh eh eh
           E                         A
que los llantos que ahogan este amanecer

Coro: 
             E 
me haran brotar

E                       A
El mar de norte a sur se va a secar
      E                   A 
y no se si pueda ahora navegar


Pre-coro:       
          E   A
para volver eh eh eh
         E                      A
y los llantos que ahogan este atardecer

Coro:     
             E 
me haran viajar


(Parte lenta)   
Am                C                 Cadd9     F
Solamente solo existo en este altar
                   G
solamentesolo persisto en este amar
   
     E                    A
El hijo de una esta se va acostar
   E                     A
y no se si ahora quiera levantarse


Pre-coro:   
        E      A
para crecer eh eh
        E                          A 
y los llantos que ahogan su anochecer

Coro:     
            E
lo haran gritar

 
Am
Besame y besame
C                F
hasta sentirte  uhhhhnnnn
    G
animal    durab-dariurub-daud

Am
Besame y besame
C            F
hasta morir  solo  
    G
animal  durab-dariurub-daud 

 Am
Besame y besame
C             F
hasta sufrir  uhhhh  
   G
animal  durab-dariurub-daud

Am
Besame y besame
C            F
hasta morir  solo  
    G
animaaaaaaalllll

final: E - A

Acordes:
-E : 022100
-A : 002220
-Am: 002210
-C : 032010
-F : 133211
-G : 320033

|-------------------------------------------------------------------------|
Cualquier duda, comentario o sugerencia escribenos
a [email protected]

Fuente original: LaCuerda
Colaborador original: Jose Daniel & Oswaldo [[email protected]]
Aviso: Este fichero es trabajo propio de su transcriptor y representa su interpretación personal de la canción. El material contenido en esta página es para exclusivo uso privado, por lo que se prohibe su reproducción o retransmisión, así como su uso para fines comerciales.

Califica esta canción


Comentarios en Facebook