Enviado por:
Anonimo

La Ley, Animal (unplugged)

Imprimir
E. CABALLERO

REPETIR 
G--------------------------
D--------------------------
A------0000------0000------
E-0000------0000-----------

G--------------------------
D-----77----77----77--77---
A--77----77----77---77-----
E--------------------------

PARA CREER...

G--------------------------
D------------77-7-7-7-7----
A-77-7-7-7-7---------------
E--------------------------
REPETIR TODO HASTA...

BESAME Y BESAME...

G-2-4-2-4-2-45-5-5-4-4-2--
D-------------------------
A-------------------------
E-------------------------

Fuente original: LaCuerda
Colaborador original: eduardo caballero [[email protected]]
Aviso: Este fichero es trabajo propio de su transcriptor y representa su interpretación personal de la canción. El material contenido en esta página es para exclusivo uso privado, por lo que se prohibe su reproducción o retransmisión, así como su uso para fines comerciales.

Califica esta canción


Comentarios en Facebook