Enviado por:
Anonimo

La Ley, Animal

Imprimir
Aquí les va el tab de una muy buena canción de la Ley;la saqué con una 
guitarra acústica pero estoy seguro que se va a escuchar muy bien tocándola 
con guitarra eléctrica y que mejor si se puede hacer con efectos 
y/o distorsión. 
 
Existen otros tabs de esta misma canción, pero este está más completo y más 
apegado a la versión original

Es mejor si la tocan con dos guitarras, una acústica que toque los acordes, 
y otra eléctrica o electroacústica que toque los riffs.

Cuando algún riff tenga la letra W, significa que se toca todo el verso.

(Riff 1) 
   
 Entre cada pisada y tocada hay que tocar dos veces la cuerda sin pisarla sobre el mismo 
traste (manteniendo el dedo ligeramente sobre la cuerda, pero sin aplastarla bien), para darle el 
efecto que tiene la guitarra en la canción

------------------------------------------------------ 1era
------------------------------------------------------
------------------------------------------------------  
6-6-6-6-6-6-7-7-7-7-7-7-9-9-9-9-9-9-7-7-7-7-7-7-------
------------------------------------------------------
------------------------------------------------------ 6ta


Riff 2
 
----------------------------------------------------------------------1era
-9-9-9-9-9-9-9-9~~10-10-10-10-10-10-10-10~~12-12----------------------
----------------------------------------------------------------------
----------------------------------------------------------------------
----------------------------------------------------------------------
----------------------------------------------------------------------6ta

-----------------------------------------------------------------1era
-12-12-12-12-12-12~~10-10-10-10-10-10-9--------------------------
-----------------------------------------------------------------
-----------------------------------------------------------------
-----------------------------------------------------------------
------------------------------------------------------------------6ta

(Riff 1) x2
(Riff 2) x1         

	    Em                      A
(Riff 1) El ojo de tu amor se va cerrar
   W         Em                         A
         y no se si acaso vuelva a despertar
          Em                            A
         yo sobre existiré con el viejo sol
           Em                         A
         bajo el manto de alguna autocompasión
                   Em   A
         para creer
                   Em                          A
         que los llantos que ahogan este amanecer
          A                (Riff 3) 
	 me harán brotar


(Riff 3) 

---------------------------------------------- 6ta
--5~~-7-7~~5~~7~~5~~7~~7~7~~7~~~12--12--12-----
--7~~~9-9~~7~~9~~7~~9~~9~9~~9~~~14--14--14-----  x4 siempre
-----------------------------------------------  
-----------------------------------------------
---------------------------------------------- 1era

          Em                        A
(Riff 1) El mar de norte a sur se va secar
   W      Em                 A
         y no se si pueda ahora navegar
                    Em  A
         para volver
                 Em                     A
         y los llantos que ahogan este atardecer
          A                (Riff 3)
         me harán viajar 

         
         
         Lam                Si7
(Riff 4 )Solamente solo existo en este altar
    W    C                   Si7
         solamente solo persisto en este amar
         Lam                  Si7            C
	   bésame y bésame hasta sentirte
             Si7
         animal


Riff 4 (son más punteos dependiendo de la velocidad con que 
   lo toquen)

-5-5-5-5-5-5-5-5-5-5-5-~~-7-7-7-7-7-7-7-7-7-7-7--~~--8-8-8-- 1era
-5-5-5-5-5-5-5-5-5-5-5-~~-7-7-7-7-7-7-7-7-7-7-7--~~--8-8-8--
------------------------------------------------------------
------------------------------------------------------------
------------------------------------------------------------
------------------------------------------------------------  6ta

8-8-8-8-8-8-8-8-7-7-7-7-7-7-7-7-7-7----- 1era
8-8-8-8-8-8-8-8-7-7-7-7-7-7-7-7-7-7-----
----------------------------------------
----------------------------------------
----------------------------------------
---------------------------------------- 6ta


(Riff 1) x1 antes de empezar con el siguiente verso
          

          Em                       A
(Riff 1) El hijo de una star se va acostar
   W          Em                  A
         y no se si acaso quiera levantarse
                    Em  A
         para crecer
                 Em                     A
         y los llantos que ahogan su anochecer
           A             (Riff 3)
         lo harán gritar


         Lam                Si7
	   Solamente solo existo en este altar
         C                   Si7
         solamente solo persisto en este amar
         Lam              Si7             C      Si7 
(Riff 4) bésame y bésame hasta sentirte.... animal
   W     Lam              Si7             C      Si7
         bésame y bésame hasta morir solo.... animal
         Lam              Si7             C      Si7
         bésame y bésame hasta sentirte.... animal
         Lam              Si7             C      Si7
         bésame y bésame hasta morir solo.... animal

(Riff 2) x4


      6ta---------1era	
Si7      021202



Fuente original: LaCuerda
Colaborador original: Anonimo [[email protected]]
Aviso: Este fichero es trabajo propio de su transcriptor y representa su interpretación personal de la canción. El material contenido en esta página es para exclusivo uso privado, por lo que se prohibe su reproducción o retransmisión, así como su uso para fines comerciales.

Califica esta canción


Comentarios en Facebook