Enviado por:
Anonimo

La Ley, Amate Y Salvate

Imprimir
Hola a todos, bueno, este es el Tab de esta gran canción,
bueno, me falta el solo, pero estoy trabajando
en eso, así que no se desesperen...

Intro:

E|--------------------------|
B|--------------------------|
G|--------------------------|
D|-7-7-7-7-x-x-5------------|
A|-7-7-7-7-x-x-5--x2--------|
E|-5-5-5-5-x-x-3------------|

Versos:
E|-----------------x-x-x-x--x-x-x-x--|
B|-----------------x-x-x-x--x-x-x-x--| 
G|-----------------x-x-x-x--x-x-x-x--|  Se repite las veces
D|-7-7-7-7-x-x-5---7-7-7-7--7-7-7-7--|  /que se necesite
A|-7-7-7-7-x-x-5---7-7-7-7--7-7-7-7--| /
E|-5-5-5-5-x-x-3---5-5-5-5--5-5-5-5--|/

Precoro:

E|----------------------------------|
B|----------------------------------| 
G|-------------------1--1-----------|  x3
D|-10-10-10-10-10-10-2--2-5-5-5-5---|  /
A|-10-10-10-10-10-10-2--2-5-5-5-5---| /
E|-8--8--8--8--8--8-------3-3-3-3---|/

E|------------|
B|------------| 
G|-7--7--7----|  Las veces necesarias
D|-7--7--5----|  /antes de llegar al coro
A|-5--5--5----| /
E|------------|/

Coro:

E|---------------------------------------------|
B|---------------------------------------------|
G|-7-7-7-7-7-7-7-7-----------------------------|
D|-7-7-5-7-7-7-7-7--5-5-5-5-5-5-5-5------------|
A|-5-5-5-5-5-5-5-5--5-5-5-5-5-5-5-5------------|
E|------------------3-3-3-3-3-3-3-3------------|

Bueno, eso es todo hasta ahora, me falta sacar el solo, el cual
estoy trabajando en ello... Chaooooo

Saludos a todos, en especial a la Cecilia Hazeldine!!!!
que la AMO CON TODO MI CORAZÓN!!!

Fuente original: LaCuerda
Colaborador original: Sebastian [[email protected]]
Aviso: Este fichero es trabajo propio de su transcriptor y representa su interpretación personal de la canción. El material contenido en esta página es para exclusivo uso privado, por lo que se prohibe su reproducción o retransmisión, así como su uso para fines comerciales.

Califica esta canción


Comentarios en Facebook