Enviado por:
Anonimo

La Ley, Al Final

Imprimir
INTRO
Cm   Gm


Cm                 Gm
CUANTAS VECES INTENTE
   G           Cm
ALEJARME DE TU RED
           Gm         G
MUCHAS MAS DE LAS QUE YO RECUERDO


Cm                      Gm
BLANCO VISTE TU OBSESION
      G         Cm
NEGRO ES TU CORAZON
       Gm        G
ENCADENAS MI ABSOLUTA LIBERTAD


(2 VECES)
e---x--x----x--x-----x--x----x--x-----x-
B---x--x----x--x-----x--x----x--x-----x-
G---3--5----3--5-----3--5----3--5-----5-
D---3--5----3--5-----3--5----3--5-----5-
A---1--3----1--3-----1--3----1--3-----3-
E---x--x----x--x-----x--x----x--x-----x-


Cm                 Gm
ME ENVENENAS DE PLACER
    G             Cm
DILUYENDO TU TRAICION
                Gm        G
Y ME CREO FUERA DE PELIGRO


Cm               Gm
TENGO GANAS DE VIVIR
      G           Cm
LUEGO ME QUIERO MORIR
                                                                               Gm           G
MI EQUILIBRIO TAMBALEA EN UN CIRCO FATAL


(2 VECES)
e---x--x----x--x-----x--x----x--x-----x-
B---x--x----x--x-----x--x----x--x-----x-
G---3--5----3--5-----3--5----3--5-----5-
D---3--5----3--5-----3--5----3--5-----5-
A---1--3----1--3-----1--3----1--3-----3-
E---x--x----x--x-----x--x----x--x-----x-



Cm7                           A#
PORQUE A......................AL FINAL
     F          C
EL DOLOR SERA VITAL
Cm7                           A#
PORQUE A......................AL FINAL
     F          C
EL DOLOR SERA VITALIDAD


Cm   Gm   G


Cm                  Gm
A MI LADO SIEMPRE ESTAS
   G              Cm
ACECHANDO MI AFLICCION
                                                                              Gm          G
LISTA PARA ATORMENTAR MI CALMA


Cm                Gm
ME DESVIAS CUANDO VOY
     G              Cm
AL ENCUENTRO CON MI SER
                                                                                 Gm           G
Y OTRA VEZ DESTRUYES LA ESPERANZA DE LLEGAR
G             Gm
DE SALVARME Y ESCAPAR


(2 veces)
e---x--x----x--x-----x--x-----x--x-----x-
B---x--x----x--x-----x--x-----x--x-----x-
G---x--x----x--x-----x--x-----x--x-----x-
D---3--5----3--5-----3--5-----3--5-----5-
A---3--5----3--5-----3--5-----3--5-----5-
E---1--3----1--3-----1--3-----1--3-----3-


Cm7                           A#
PORQUE A......................AL FINAL
     F          C
EL DOLOR SERA VITAL
Cm7                           A#
PORQUE A......................AL FINAL
     F          C
EL DOLOR SERA VITALIDAD


(4 VECES)
e---x--x----x--x----x--x-
B---x--x----x--x----x--x-
G---x--x----3--3----5--5-
D---6--6----3--3----5--5-
A---6--6----1--1----3--3-
E---4--4----x--x----x--x-


Cm                Gm
CONDENASTE MI EXISTIR
     G            Cm
RECLUIDO EN LA CIUDAD
                                                                             Gm       G
VENERANDOTE COMO UN PAGANO
Gm        G
SEPULTADO SIN SOÑAR


Cm7                           A#
PORQUE A......................AL FINAL
     F          C
EL DOLOR SERA VITAL
Cm7                           A#
PORQUE A......................AL FINAL
     F          C
EL DOLOR SERA VITAL
Cm7                           A#
PORQUE A......................AL FINAL
     F          C
EL DOLOR SERA VITALIDAD


(4 VECES)
e---x--x----x--x----x--x-
B---x--x----x--x----x--x-
G---x--x----3--3----5--5-
D---6--6----3--3----5--5-
A---6--6----1--1----3--3-
E---4--4----x--x----x--x-



                 *ACORDES*

  Cm    Gm     G    Cm7   A#     F     C
e--3-- --3-- --3-- --3-- --1-- --1-- --0--   
B--4-- --3-- --3-- --4-- --4-- --1-- --1--
G--5-- --3-- --4-- --3-- --4-- --2-- --0--
D--5-- --5-- --5-- --5-- --4-- --3-- --2--
A--3-- --5-- --5-- --3-- --1-- --3-- --3--
E--3-- --3-- --3-- --x-- --x-- --x-- --x--


Esta cancion quiero dedicarcela a una amiga que acabo de 
conocer.  Aun si no nos conocemos muy bien, 
quiero que hacerte ver que puedes contar conmigo en lo que sea. 
Con mucho cariño, para ti Alicia.  Espero llegar a conocerte mas.

Fuente original: LaCuerda
Colaborador original: L. J. Calderon [[email protected]]
Aviso: Este fichero es trabajo propio de su transcriptor y representa su interpretación personal de la canción. El material contenido en esta página es para exclusivo uso privado, por lo que se prohibe su reproducción o retransmisión, así como su uso para fines comerciales.

Califica esta canción


Comentarios en Facebook