Enviado por:
Anonimo

La Ley, Al Final

Imprimir
Aqui estoy otra vez jeje. ESta vez con otra cancion de La Ley
Espero que les guste

Intro 1:
  Bm(-5)     Bm        Bm(-5)
E|--X--|-----X--|------X--|---------------|---------------------------|
A|--2--|-----2--|------2--|--2/0--0--0/3--|---------------------------|
D|--4--|-----4--|------4--|--4/1--0--1/4--|--4------------------------|
G|--4--|--4--4--|-4/3--4--|---------------|--4------------------------|
B|--3--|--3--3--|-3/2--3--|---------------|----0--0-------------------|
e|--X--|-----2--|------X--|---------------|----0--0/1--5-5/7--10/9-5--|
              Bm(-5)
E|---------------X--------|--7/0--|
A|---------------2--------|-------|
D|---------------4--------|-------|
G|---------------4--------|-------|
B|--0----0--0----3---2/3--|-------|
e|--2/0--0--0/2--X--------|-------|

Intro 2:
  Bm(-5)       D                              Bm(-5)
E|--X--|-------------------|---------|----------X--|
A|--2--|-------------------|--4/5-2--|----------2--|
D|--4--|-------0-----------|---------|----------4--|
G|--4--|--4----2--------2--|---------|----------4--|
B|--3--|--3----3--0-1/2----|---------|--2-3--2--3--|
e|--X--|--0----2-----------|---------|----------X--|


Bm(-5)                A    F#            Bm(-5)
  Cuántas veces intenté alejarme de tu red
                        A          F#
  muchas más de las que yo recuerdo
Bm(-5)                  A        F#          Bm(-5)
  blanco viste tu obsesión negro es tu corazón
    (**)           A          F#-Bm(-5)(*)
  encadenas mi absoluta libertad

Bm(-5)                A      F#             Bm(-5)
  Me envenenas de placer diluyendo tu traición
                  A         F#
  y me creo fuera de peligro
Bm(-5)              A        F#       (**)Bm(-5)
  tengo ganas de vivir luego me quiero morir
                      A           F#    Bm(-5)(*)
  mi equilibrio tambalea en un circo fatal

CORO:         D         A             E       B
  Porque al...al final el dolor será vital
         D         A             E           B-Bm(-5)
  porque al...al final el dolor será vitalidad

Bm(-5)-A-D-A-Bm(-5)(***)

Bm(-5)                 A      F#               Bm(-5)
  A mi lado siempre estás acechando mi aflicción
   (**)             A         F#
  lista para atormentar mi calma
Bm(-5)                 A      F#             Bm(-5)
  me desvías cuando voy al encuentro con mi ser
                        A            F#
  y otra vez destruyes la esperanza de llegar
  A             F#    Bm(-5)(*)
  de salvarme y escapar

CORO

Bm(-5)-A-B (x4)

Bm(-5)               A       F#             Bm(-5)
  condenaste mi existir recluido en la ciudad
                A          F#
  venerándote como un pagano
  A         F#     Bm(-5)
  sepultado sin soñar

CORO

Bm(-5)-A-B (x4)

        (*)
E|--------------------|
A|--------------------|
D|--------------------|
G|--------------------|
B|--5/7-5/7-5/7-5/7---|
e|--5/7-5/7-5/7-5/7---|

         (**)
E|--------------------|
A|--------------------|
D|--------------------|
G|--2-----------------|
B|----0-2/3-----------|
e|--------------------|

         (***)
E|---------------------|
A|--------------4/5-2--|
D|---------------------|
G|--2-------2----------|
B|----0-1/2------------|
e|---------------------|
NOTA:Esto va despues del 1° CORO,
esto se toca junto con la parte de musica

          Acordes:
        E A D G B e
       -------------
Bm(-5): X 2 4 4 3 X
  A:    X 0 2 2 2 0
  F#:   2 4 4 3 2 2
  D:    X X 0 2 3 2
  E:    0 2 2 1 0 0
  B:    X 2 4 4 4 2

Fuente original: LaCuerda
Colaborador original: Joshua [[email protected]]
Aviso: Este fichero es trabajo propio de su transcriptor y representa su interpretación personal de la canción. El material contenido en esta página es para exclusivo uso privado, por lo que se prohibe su reproducción o retransmisión, así como su uso para fines comerciales.

Califica esta canción


Comentarios en Facebook