Enviado por:
Anonimo

La Ley, Surazul

 mi nombre es Franco Alvarez Rivera y espero les guste 
mi vercion y si no ni modo pero A 
mi si me gusto mi vercin de  esta rola bueno alo que 
bamos

la ley
surasul

e-----------------------------------------------------
B-----------------------------------------------------
G-----------------------------------------------------
D-----------------------------------------------------
A-----5-7--7/9--7/9--7--5---5/7--5--------------------
E--5-7--------------------7--------7--5--3--5-5/-7----

e-----------------------------------------------------
B-----3-5--5/7--5/7--5--3---3/5--3-------------3------
G--2-4--------------------4-------4-2--0--2-2/4-4--2--
D-----------------------------------------------------
A-----------------------------------------------------
E-----------------------------------------------------

D                       Bm 
 Solo sueña y dime si todo esto es verda
D                        Bm
 solo sueña y dime si podremos llegar
A                      Bm                E
 juntos auque la distancia nos deje ver
                     A 
 que el amor es al mas


D                            Bm
 Solo sueña y dime si hay posivilidad
D                        Bm   
 Solo sueña y dime que jamas cambiaras
A                    Bm                     E
 aunque algunas sircunstancias nos dejen ver
                  A       G
 que es posible proyectarse
                 D      G                        D 
 me veras en el suuuur donde el mar es triste y azul
A                    Bm                  E
 juntos auque la distancia nos deje ver
                       A 
que el amor es algo  maaaaaaas


D Bm D Bm A Bm E A 


D                      Bm
 Solo sueña y dime seguiremos haca
D                       Bm
 Solo sueña y dime con esfuerzo abanzar
A                      Bm               E
 juntos aunque la inpaciencia no de ver
                 A     G
 que es dificil perdurar
                 D  G                         D
 me veras en el sur donde el mar es triste y azul
G                D                  G  
 me veras en el sur huu ho ho ho ho  
                           D
 donde el mar es trite y azul
G      D     G      D        G       D   G D G D G D 
 surazul hooo surasul haaaaa   surasul  ect.....

asta que se acabe bueno eso estodo

alguna sugerencia o correcciones mandelas a mi mail
por favor [email protected] 

Fuente original: LaCuerda
Colaborador original: juan fco alvarez [[email protected]]
Aviso: Este fichero es trabajo propio de su transcriptor y representa su interpretación personal de la canción. El material contenido en esta página es para exclusivo uso privado, por lo que se prohibe su reproducción o retransmisión, así como su uso para fines comerciales.

Califica esta canción


Comentarios en Facebook