Enviado por:
Anonimo

La Ley, Mundo Ideal

 INTRO: C D Em   x3
       C D

   Em           D            C
Se va el ayer y me robó los días
 C       Em  D    C
Que el tiempo congeló

Em          D                  C
Todo cambió hasta el azul del cielo

Em      D    C        D
Respiras no noo..

  
       C    D     Em
Beautifuuuuul se fue

       C    D    Em
Se perdioooo talvez

       C    D         Em
Beautifuuuul es porvenir

         C   D          Em
Que desvanece dentro de Mi 


  Em            D          C
Y desperté con ganas de contar

     Em  D      C
Las gotas del mar

  Em           D              C       
Y me encontré con la devastación

        Em   D       C              D
Que el hombre escondió


       C     D     Em
Beautifuuuuul se fue

       C    D    Em
Se perdioooo talvez

      C     D         Em
Beautifuuuul es porvenir

         C         A 
Que desvanece 


CORO

   A           F          G      A 
intentemos llegar

    A        F         G        A 
Puedes imaginar

     A         F         G        A 
Sentiremos al fin

     A      F          G
Ese mundo ideal


SOLO:    C    D    Em

e-----------------------------------------------15/12--
B--------------5-----------------8--10--12--15---------
G----5----7---------7----9----11-----------------------
D------------------------------------------------------
A------------------------------------------------------
E------------------------------------------------------

e----5/3/5---------------------------------------------
B------------5---5/3-------3/5-------------------------
G----------------------4-------------------------------
D------------------------------------------------------
A------------------------------------------------------
E------------------------------------------------------


Intentemos llegar
Puedes imaginar
Sentiremos al fin
Ese mundo ideal... 

Fuente original: LaCuerda
Colaborador original: Charlie Nuñez [[email protected]]
Aviso: Este fichero es trabajo propio de su transcriptor y representa su interpretación personal de la canción. El material contenido en esta página es para exclusivo uso privado, por lo que se prohibe su reproducción o retransmisión, así como su uso para fines comerciales.

Califica esta canción


Comentarios en Facebook