Enviado por:
Anonimo

La Ley, Intenta Amar (unplugged)

 Es muy facil pero para que suene mejor se toca con 2 
guitarras una haciendo el punteo y la otra los acordes
Simbologia
s=slide
h=hammer on
p=pull off
~=vibrato
INTRO
0:03
|------------------|----------------------|
|---3s5~~5-6--8b---|--9-8-------5---------|
|----------------9-|------9p7s5----7p5----|
|------------------|------------------h7--|
|------------------|----------------------|
|------------------|----------------------|
Amaj7  C6-5add11  [x 2]

       Amaj7  C6-5add11
Las Penas Se Van
       Amaj7  C6-5add11
Y Vuelven A Estar
       Amaj7  C6-5add11
Ancladas A Un Mar
       Amaj7  C6-5add11
Que Suele Callar
      C            G
Tus Lágrimas, Tu Devoción
    Dm                    Am
Un Pez Que Vence Todo Su Temor
    C           G
Para Vivir, Para Existir
    Dm                C   G
Y Descubrirse Cada Día Más


Amaj7  C6-5add11
1.11
|------------------|
|---3s5~~5-6--8b---|
|----------------9-|
|------------------|
|------------------|
|------------------|
  Amaj7  C6-5add11
Intenta Amar
      Amaj7     C6-5add11
Un Trozo De Ese Mar
    Amaj7  C6-5add11
Inunda Mi Paz

       C            G
La Inmensidad De Esta Verdad
       Dm               Am
Ni Impedirá Que Pueda Nadar
     C         G
Dentro De Ti Para Sentir
    Dm                 C   G   A 
Y Descubrirte Cada Día Más


 E      G
Pa Pa Pa Pa
A            E
Necesito Tu Calor
E      G
Pa Pa Pa Pa
A             A   Amaj7
Necesito Tu Amor


Amaj7  C6-5add11
2:32
|------------------|----------------------|
|---3s5~~5-6--8b---|--9-8-------5---------|
|----------------9-|------9p7s5----7p5s7--|
|------------------|----------------------|
|------------------|----------------------|
|------------------|----------------------|
       Amaj7  C6-5add11
El Tiempo Se Va
       Amaj7  C6-5add11
Muy Lejos Atrás
            C            G
Y Ahora Estoy Y También Soy
    Dm                    Am
El Hombre Que Busca Una Razón

    C            G
Para Vivir, Para Decir
     Dm                   C   G   A 
Que Hoy Te Quiero Cada Día Más
E      G
Pa Pa Pa Pa
A            E
Necesito Tu Calor

E      G
Pa Pa Pa Pa
A             E
Necesito Tu Amor
   E 
Y Ahora Que No Estoy Fallando
  G
Siento Que Me Estás Matando
 A             E
Necesito Tu Calor
   E
Y Ahora Que Te Estoy Amando
   G
Nuestro Amor Se Esta Enfriando
  A           E
Necesito Tu Calor
E
 Y Ahora Que Estoy Fallando
   G
Siento Que Me Estas Matando
  A            E
Necesito Tu Calor

Nota:        	EADGBE
Amaj7 	  : 	x02120
C6-5add11 :	x33210

Dedicada para una chica muy especial que es Andrea  Soto  
Rios , que fue la que me inspiro a que tabulara esta 
canción ojala ella me supiera apreciar. y cuidense manden 
a mi e-mail [email protected] o [email protected] 

Fuente original: LaCuerda
Colaborador original: hechizo [[email protected]]
Aviso: Este fichero es trabajo propio de su transcriptor y representa su interpretación personal de la canción. El material contenido en esta página es para exclusivo uso privado, por lo que se prohibe su reproducción o retransmisión, así como su uso para fines comerciales.

Califica esta canción


Comentarios en Facebook