Acordes y tablaturas para guitarra

Acordes y Tablaturas
Usuario: Password:

Buscar:
Acordes y Tablaturas >> Letra A >> Acordes de Alejandro fernandez >> Me dedique a perderte
Tablatura de Me dedique a perderte, Alejandro fernandez

Me dedique a perderte

Alejandro fernandez






HoLa AqUi sOlO lEs eStOy MaNdAndO El PuNtEo DeL PrInCiPiO e InTeRmEdio
PoRq LoS aCoRdEs SoN lOs MiSmOs QuE lAs AnTeRiOrEs TrAnScRiPcIoNes
oJAlA lA pUeDaN tOcAr EsTa MuY SeNcIlLa...SaLUDoS a
tOdOs LoS dE lA pRePa UnO y El CeTiS 112 De MeRiDa
De PaRtE dE NAhUm

iNtrO


E---------------------------------------------------------}
A---------------------------------------------------------}
D---------------------------------------------------------}
G-----------------6----------------------------------6----}
B--6--6/8--8/9-9--6--9---4----3--4------6-6/8-8/9-9--6--9-}
E--5--5/6--6/8-8-----8---3/4--4--4------5-5/6-6/8-8-----8-}

E---------------------------------------------------------}
A---------------------------------------------------------}
D---------------------------------------------------------}
G-----------------6---------------------------------------}
B--6--6/8--8/9-9--6--9---4----3--4---2---2----------------}
E--5--5/6--6/8-8-----8---3/4--4--4---1---1----------------}


     G#                  G7
Por qué no te bese en el alma
              C-
Cuando aun podía
     C#                  F7
Por qué no te abrace la vida
            A#-
Cuando la tenía
  D#7
Y yo que no me daba cuenta
            G#
Cuanto te dolía
  D#          C#
Y yo que no sabía
    C-           A#-
El daño que me hacia.


G#                  G7
Como es que nunca me fije
                 C-
Que ya no sonreías
C#                    F7
Y que antes de apagar la luz
               A#
Ya nada me decías
    D#7
Que aquel amor se te escapo
                  G#
Que había llegado el día
D#          C#
Que ya no me sentías
C-           A#-    D#7
Que ya ni te dolía.

                G#
Me dedique a perderte
                   C-
Y me ausente en momentos
                     F7
Que se han ido para siempre,
                 A#-
Me dedique a no verte
                   D#7
Y me encerré en mi mundo
                 G#
Y no pudiste detenerme
    D#7/        G#
Y me aleje mil veces
            C-
Y cuando regresé
                       F7
Te había perdido para siempre
            A#-
Y quise detenerte
                D#7
Y entonces descubrí
                   G#
Que ya mirabas diferente
    D#          C#
Me dedique a perderte
    C-          A#-     D7
Me dedique a perderte


E---------------------------------------------------------}
A---------------------------------------------------------}
D---------------------------------------------------------}
G-----------------6-----------------------------------6---}
B--6--6/8--8/9-9--6--9---4----3--4-------6-6/8-8/9-9--6--9}
E--5--5/6--6/8-8-----8---3/4--4--4-------5-5/6-6/8-8-----8}

E---------------------------------------------------------}
A---------------------------------------------------------}
D---------------------------------------------------------}
G--------------6------------------------------------------}
B-----6-8-9-9--6--9---4----3--4---2---2-------------------}
E-----5-6-8-8-----8---3/4--4--4---1---1-------------------}


aqui es lo mismo que al principio


Porque no te llene de mí
Cuando aun había tiempo
Porque no pude comprender
Lo que hasta ahora entiendo
Que fuiste todo para mí
Y que yo estaba ciego
Te deje para luego,
Este maldito ego.

coro..

Fuente original: LaCuerda
Colaborador original: Nahum Sánchez Chuc [[email protected]]

Que te parecio? Calificalo con estrellas!!

Rating: 4.9/10 (88 votos)

Este fichero es trabajo propio de su transcriptor y representa su interpretación personal de la canción. El material contenido en esta página es para exclusivo uso privado, por lo que se prohibe su reproducción o retransmisión, así como su uso para fines comerciales.


Deja tus comentarios:

Letras de Alejandro fernandez
Letras de canciones | Musica Independiente