Acordes y tablaturas para guitarra

Acordes y Tablaturas
Usuario: Password:

Buscar:
Acordes y Tablaturas >> Letra K >> Acordes de Kevin johansen >> Down with my baby
Tablatura de Down with my baby, Kevin johansen

Down with my baby

Kevin johansen






Down with my baby

1|----2-----2--------2-----2--------2------2--------2--
2|----2-----2--------2-----2--------2------2--------2--
3|----2-----2--------2-----2--------2------2--------2--
4|-----------------------------------------------------
5|-0-----0-----0--0-----0-----0--4-----4------0--4-----
6|-----------------------------------------------------
I´m gonna get down with my baby
1|----2-----2--------2-----2--------4------4--------4--
2|----2-----2--------2-----2--------5------5--------5--
3|----2-----2--------2-----2--------6------6--------6--
4|-----------------------------------------------------
5|-0-----0-----0--0-----0-----0--4-----4------0--4-----
6|-----------------------------------------------------
And I´m gonna get down whit her soon
1|----5-----5--------5-----5--------7------7--------7--
2|----7-----7--------7-----7--------7------7--------7--
3|----7-----7--------7-----7--------8------8--------8--
4|-----------------------------------------------------
5|-5-----5-----0--5-----5-----0--9-----9------7--9-----
6|-----------------------------------------------------
She´s on her way and I just can´t wait
1|----3-----3--------3-----3-------------------
2|----3-----3--------3-----3-------------1-----
3|----4-----4--------4-----4----------0--------
4|---------------------------------2-----------
5|-5-----5-----3--5-----5-------3--------------
6|---------------------------------------------
She´ll be back by this aftermoon

(SE REPITE EL MISMO RITMO)

I´m gonna get down with my baby
I´ve been waitin´for this moment, baby
And I´m gonna get down whit her soon
Knowing all along that it was goin´to happen
She´s on her way and I just can´t wait
Even through the moments of doubt, baby
She´ll be back by this aftermoon
I knew you´d come through.

I´m gonna get down with my baby
You owed it to yourself, baby
And I´m gonna get down whit her soon
You were with him for way too long
She´s on her way and I just can´t wait
She´ll be back by this aftermoon
Trapped in you own fears for almost 8 years

(SE ACELERA EL RITMO)

A                          F#m
I´m gonna get down with my baby
And all you had to do was wake up and walk out.
A                               C#m
And I´m gonna get down whit her soon
Cause I was here waitin´all along
D                                 B
She´s on her way and I just can´t wait
And now  you know That you belong to yourself
G                            C
She´ll be back by this afternoon
Not to him, not to me

(VUELVE AL RITMO INICIAL)

I´m gonna get down with my baby
And you chose me
And I´m gonna get down with her soon
Thank you


nota: el acorde con el que termina la cancion es un F#m con 
esta formacion  x 4 4 2 0 0 

se la dedico a Alejandra que es mi luz y mi vida y que sin ella 
no podria vivir estos momentos no tan faciles.

Fuente original: LaCuerda
Colaborador original: daniel [[email protected]]

Que te parecio? Calificalo con estrellas!!

Rating: 7.8/10 (79 votos)

Este fichero es trabajo propio de su transcriptor y representa su interpretación personal de la canción. El material contenido en esta página es para exclusivo uso privado, por lo que se prohibe su reproducción o retransmisión, así como su uso para fines comerciales.


Deja tus comentarios:

Letras de Kevin johansen
Letras de canciones | Musica Independiente