Acordes y tablaturas para guitarra

Acordes y Tablaturas
Usuario: Password:

Buscar:
Acordes y Tablaturas >> Letra K >> Acordes de Kapanga >> El universal
Bajo de El universal, Kapanga

El universal

Kapanga






Intro

G----------------------------
D----------------------------
A-4h555-4h555-4h5-55s15------
E----------------------------

G-----------------------------------
D---------------------------7-------
A-5---5-----7---7-7---7---5-----7---
E---5---5-5---5-----7---7-----5-----

G----------------------------------
D----------------------------------
A-5---5-----7---7-7---7------------
E---5---5-5---5-----7---7---7-5----

Verso: Ayer te ví...

G--------------------------------------------------------------------
D--------------------------------------------------------------------
A-5---5---5---5-----7---7---7-5-4-5-6-7---7---7---7-----9---9----(7)-
E---5---5---5---5-5---5---5-------------7---7---7---7-7---7---(5)----

iluminando nuestro...

G----------------------------------------------------------------------------------
D----------------------------------------------------------------------------------
A--2-3-4-5---5---5---5-----7---7---7-5-4-5-6-7---7---7---7-----9---9----(7)----(7)-
E----------5---5---5---5-5---5---5-------------7---7---7---7-7---7---(5)---(5)-----

A través del universo...

G---------------------------------------------------------------
D---------------------------------------------------------4-6-7-
A---5---5---5------7---7---7------5---5---5---------4-5-7-------
E-3---3---3---3-4-5---5---5---5-3---3---3---3-4-5-7-------------

Estribillo: Yo quiero estar con vos...

G-----------------------------------
D---------------------------7-------
A-5---5-----7---7-7---7---5-----7---
E---5---5-5---5-----7---7-----5-----

Yo quiero estar con vos...

G--------------------------------------
D--------------------------------------
A-5---5-----7---7-7---7----------------
E---5---5-5---5-----7---7---7-5--5-7-5-

En la mañana...

G-----------------------------------------------------------------
D-----------------------------------------------------------------
A-5---5---5---5-----7---7---7-5-4-5-6-7---7---7---7-----9---9---7-
E---5---5---5---5-5---5---5-------------7---7---7---7-7---7---5---

Iiluminando nuestro...

G--------------------------------------------------------------------
D--------------------------------------------------------------------
A-2-3-4-5---5---5---5-----7---7---7---7---7---7---7-----9---9----(7)-
E---------5---5---5---5-5---5---5---5---7---7---7---7-7---7---(5)----

A través del universo...

G---------------------------------------------------------------
D---------------------------------------------------------4-6-7-
A---5---5---5------7---7---7------5---5---5---------4-5-7-------
E-3---3---3---3-4-5---5---5---5-3---3---3---3-4-5-7-------------

Estribillo: Yo quiero estar con vos...

G-----------------------------------
D---------------------------7-------
A-5---5-----7---7-7---7---5-----7---
E---5---5-5---5-----7---7-----5-----

Yo quiero estar con vos...

G--------------------------------------
D--------------------------------------
A-5---5-----7---7-7---7----------------
E---5---5-5---5-----7---7--5-7---5-7-5-

Yo quiero estar con vos...

G-----------------------------------
D---------------------------7-------
A-5---5-----7---7-7---7---5-----7---
E---5---5-5---5-----7---7-----5-----

Yo quiero estar con vos...

G----------------------------------
D----------------------------------
A-5---5-----7---7-7---7------------
E---5---5-5---5-----7---7---7-5----

G---------------------------------------
D---------------------------------------
A-5-------555-----------222-------------
E---5-7-5-----0-222-333-----5-5555-5-55-

G----------------------------------------
D----------------------------------------
A-----------555-----------222------------
E-555-5-7-5-----0-222-333-----5555555555-

A través del universo...

G-------------------------------------------------------------------------------
D-------------------------------------------------------------------------4-6-7-
A-------------------------------------------------------------------4-5-7-------
E-00-1-2-3333333333333333-5555555555555555-0-1-3333333333333333-5-7-------------

Estribillo: Yo quiero estar con vos...

G--------------------------------------------
D--------------------------------------------
A-55555555-------4-5-6-77777777--------------
E----------55555----------------7777-5555----

Yo quiero estar con vos...

G--------------------------------------------
D--------------------------------------------
A-55555555----------77777777-----------------
E----------55555555----------7777-5-5-7-5----

Yo quiero estar con vos...

G--------------------------------------------
D--------------------------------------------
A-55555555-------4-5-6-77777777--------------
E----------55555----------------7777-5-5-7-5-

Yo quiero estar con vos...

G-----------------------------------------------
D-----------------------------------------------
A-55555555--------------777777------------------
E----------55555555-7-5--------5-6-7777-5-5-7-5-

Final

G-------------------------
D-------------------------
A-4h555-4h555-4h5-55------
E-------------------------

Fuente original: LaCuerda
Colaborador original: Alejandro Wasil [[email protected]]

Que te parecio? Calificalo con estrellas!!

Rating: 3.1/10 (11 votos)

Este fichero es trabajo propio de su transcriptor y representa su interpretación personal de la canción. El material contenido en esta página es para exclusivo uso privado, por lo que se prohibe su reproducción o retransmisión, así como su uso para fines comerciales.


Deja tus comentarios:

Letras de Kapanga
Letras de canciones | Musica Independiente