Acordes y tablaturas para guitarra

Acordes y Tablaturas
Usuario: Password:

Buscar:
Acordes y Tablaturas >> Letra J >> Acordes de Juanes >> La paga
Tablatura de La paga, Juanes

La paga

Juanes






El INTRO es con estos acordes

       Am   Dm   E
e [----5----5----7---]
b [----5----6----9---]
g [----5----7----9---]
d [----7----7----9---]
a [----7----5----7---]
E [----5----5----7---]


e [----------------3---------5-5--------------]
b [---3H5----3-5-6---6-3-3H5-----3-3H5--------]
g [-------------------------------------2-----]
d [-------------------------------------------]
a [-------------------------------------------]
E [-------------------------------------------]

 Am                          Dm         
Ayer me dijiste que tu me querías
E               Am
Pero todo fué mentira
Am                           Dm
Ayer me dijiste que tu me querías 
                 Am
Pero todo fué mentira.

Am                     Dm
Ayer tu heriste la vida mia
E                    Am
Y que grande fue la herida.
Am                    Dm
Ayer tu heriste la vida mia
E                     Am
Y que grande fue la herida

e [--------------------------------------------]  
b [--3-3-5-6-6-5-3---3-5-6-5-3-----------------]
g [----------------------------3-2-------------] (CREO QUE ESTO TAMBIEN SE TOCA 
d [---------------------------------3-2--------]     AL FINAL UN TONO MAS ARRIBA)
a [--------------------------------------------]
E [--------------------------------------------]
 

aca tengo mis dudas pues es un poco dificil de escuchar por el eco

e [-------------------------3-5-6-7---------------------]
b [--3-3-5-6-6-5-3---3-5-6------------8-6-5---6-5-------]
g [-----------------------------------------7-----7-5-3-]
d [-----------------------------------------------------]
a [-----------------------------------------------------]
E [-----------------------------------------------------]


Am                             Dm   
Si tu no me quieres dime lo que sientes
E                 Am
Pero dimelo de frente
Am                            Dm
Si tu no me quieres dime lo que sientes
E                 Am
Pero dimelo de frente 
Am                            Dm
Que a mi lo que me da rabia es eso
E                 Am
De no saber lo que sientes 
Am                            Dm
Que a mi lo que me da rabia es eso
E                 Am
De no saber lo que sientes.

CORO:

en el coro se tocan los bajos del Am fuerte varias veces antes de empezar la letra 

Am                    Dm
Y si tu me pagas con eso
E                    Am  
Yo ya no te doy mas de esto amor
Am                  Dm
Si tu me pagas con eso
E                   Am
Yo ya no te doy mas de esto amor

Am                        Dm
Ayer me dijste que tu volverías
E                Am
Pero todo fue mentira
Am                         Dm
Ayer me dijiste que tu volverías
E                Am
Pero todo fue mentira.

Am                       Dm
Ayer tu dijiste mil tonterías 
E                  Am
Que acabaron con mi vida
Am                       Dm
Ayer tú dijiste mil tonterías
E                  Am
Que acabaron con mi vida

CORO

Am                    Dm
Y si tu me pagas con eso
E                    Am  
Yo ya no te doy mas de esto amor
Am                  Dm
Si tu me pagas con eso
E                   Am
Yo ya no te doy mas de esto amor  X2

---Aca sube un tono---

Bm			       Em
Te di lo que tuve solo por un beso
F#               Bm
Y no conseguí ni eso
Bm			       Em
Te di lo que tuve solo por un beso
F#               Bm
Y no conseguí ni eso

Bm			   Em
Mentira mentira mentira mentira
F#                  Bm
Todo lo tuyo es mentira
Bm			   Em
Mentira mentira mentira mentira
F#                  Bm
Todo lo tuyo es mentira


Coro:
Bm                   Em
Y si tu me pagas con eso
F#                          Bm
Yo ya no te doy mas de esto amor
Bm                   Em
Y si tu me pagas con eso
F#                          Bm
Yo ya no te doy mas de esto amor


Bm                   Em
Y si tu me pagas con eso
F#                          Bm
Yo ya no te doy mas de esto amorrrrrrrrr



       Bm   Em   F#
e [----7----7----9---]
b [----7----8----11--]
g [----7----9----11--]
d [----9----9----11--]
a [----9----7----9---]
E [----7----7----9---]

Fuente original: LaCuerda
Colaborador original: Julio Cessr Oliveros B. [[email protected]]

Que te parecio? Calificalo con estrellas!!

Rating: 5.3/10 (89 votos)

Este fichero es trabajo propio de su transcriptor y representa su interpretación personal de la canción. El material contenido en esta página es para exclusivo uso privado, por lo que se prohibe su reproducción o retransmisión, así como su uso para fines comerciales.


Deja tus comentarios:

Letras de Juanes
Letras de canciones | Musica Independiente