Enviado por: Anonimo
Agrandar Letra
Reducir Letra
Imprimir











Joaquin Sabina, Y Sin Embargo

Intro:
Guitarra Solista:


E|-|----------------------|-----------------------|-----------10/12-10--|-|
B|-|--10h12-8--10-8-------|-----------------------|--10/12-8------------|-|
G|-|-----------------9-9--|---7-9-9-9-7-9b-9-7----|---------------------|-|
D|-|----------------------|--9----------------9---|---------------------|-|
A|-|----------------------|-----------------------|---------------------|-|
e|-|----------------------|-----------------------|---------------------|-|

E|-|--7-7h5--5h7--|-|
B|-|--------------|-|
G|-|--------------|-|
D|-|--------------|-|
A|-|--------------|-|
e|-|--------------|-|

Guitarra[Española] Rítmica: Am D Em G C

Estrofa A:

Am                  D                Em        G
De sobra sabes que eres la primera
                             D           Em  D
Que no miento si juro que daría
                      Am       C      D       Em
Por ti la vida entera, por ti la vida entera

Estrofa B:

  Am                 B7              Em
Y sin embargo un rato cada día
       D                              Am
Ya vez, te engañaría con cualquiera
                 C  D        Em
Te cambiaría por cualquiera

Estrofa A:

Ni tan arrepentido ni encantado
De haberte conocido lo confieso
Tu que tanto has besado, tu que me has enseñado

Estrofa B:

Sabes mejor que yo que hasta los huesos
Solo calan los besos que no has dado
Los labios del pecado

Estribillo A:

G                   C                D
Porque una casa sin ti es una embajada
  Am                 B7             Em
De un pasillo de un tren de madrugada
        C                       A/C#
Un laberinto si luz ni vino tinto
   Am            C              D
Un velo de alquitrán en la mirada

Estribillo B:

G                         C                           G
Y me envenenan los besos que voy dando
   C                          G                G7     C             C B Am
Y sin embargo cuando duermo sin ti contigo sueño
                  Am/G             D
Y con todas si duermes a mi lado
        Am   Em                G                     G7             C
Y si te vas me voy por los tejados como un gato sin dueño
 Am       Am/G                          D
Perdido en el pañuelo de amarguras
  Am             C                              B7
Que empaña sin mancharla tu hermosura

[Riff 1]:

E|-|-------------|-|
B|-|-------------|-|
G|-|----0---0-2--|-|
D|-|---2---2--2--|-|
A|-|--3---2---0--|-|
e|-|-------------|-|

Solo (Base Estrofa A):

Estrofa A:

No debería contarlo y sin embargo
Cuando pido la llave de un hotel
Y a media noche encargo un buen champagne francés

Estrofa B:

Y cena con velitas para dos
Siempre es con otra amor
Nunca contigo, bien sabes lo que digo

Estribillo A:

Porque una casa sin ti es una oficina,
Un teléfono ardiendo en la cabina.
Una palmera de té, un museo de cera,
Un éxodo de oscuras golondrinas.

Estribillo B:

Y me envenenan los besos que voy dando
Y sin embargo cuando duermo sin ti  contigo sueño
Y con todas si duermes a mi lado
Y si te vas me voy por los tejados como un gato sin dueño
Perdido en el pañuelo de amarguras
Que empaña sin mancharla tu hermosura
Y cuando vuelves hay fiesta en la cocina
Y bailes sin orquestas, y ramos de rosas con espinas
Pero dos no es igual que uno mas uno
Y el lunes al café del desayuno
Vuelve  la guerra fría
Y al cielo de tu boca el purgatorio
Y al dormitorio el pan de cada día
Y me envenenan los besos que voy dando
Y sin embargo cuando duermo sin ti contigo sueño
Y con todas si duermes a mi lado
Y si te vas me voy por los tejados como un gato sin dueño
Perdido en el pañuelo de amarguras
Que empaña sin mancharla tu hermosura
Y cuando vuelves hay fiesta en la cocina
Y bailes sin orquestas, y ramos de rosas con espinas
Pero dos no es igual que uno mas uno
Y el lunes al café del desayuno
Vuelve  la guerra fría
Y al cielo de tu boca el purgatorio
Y al dormitorio el pan de cada día
Y me envenenan los besos que voy dando

Acordes:

     Am     D    Em     G     C     B7   A/C#   B    Am/G  G7
E|-|--0--|--2--|--0--|--3--|--0--|--2--|--0--|--2--|--0--|--1--|-|
B|-|--1--|--3--|--0--|--3--|--1--|--4--|--2--|--4--|--1--|--0--|-|
G|-|--2--|--2--|--0--|--0--|--0--|--2--|--2--|--4--|--2--|--0--|-|
D|-|--2--|--0--|--2--|--0--|--2--|--4--|--2--|--4--|--2--|--0--|-|
A|-|--0--|--X--|--2--|--2--|--3--|--2--|--4--|--2--|--0--|--2--|-|
e|-|--X--|--X--|--0--|--3--|--X--|--X--|--X--|--X--|--3--|--3--|-|

Gracias a la colaboracion de Rafael Linares.

Fuente original: LaCuerda
Colaborador original: Leandro Koren [[email protected]]
Aviso: Este fichero es trabajo propio de su transcriptor y representa su interpretación personal de la canción. El material contenido en esta página es para exclusivo uso privado, por lo que se prohibe su reproducción o retransmisión, así como su uso para fines comerciales.

Califica esta canción


Comentarios en Facebook