Enviado por:
Anonimo

Joaquin Sabina, Esta Noche Contigo

Imprimir
B
Que no arranquen los coches, que se detengan todas las factorías,
         F#m                             B
que la ciudad se llene de largas noches y calles frías.
                                             A        B
Que se enciendan las velas, que cierren los teatros y los hoteles,
         F#m                               B      A
que se queden dormidos los centinelas en los cuarteles.
B                    A/B        B            A         B
Que se mojen las balas,    que se borren las fotos de las revistas,
         F#                F#7            B    A/B
que se coman a besos las colegiales a los artistas.
B                    A/B        B            A         B
Que se toque la gente,     que no lleguen los trenes a la frontera,
           F#                F#7            B    A/B   B   B7…
que sean cariñosas con los clientes las camareras.

         E         D#7         B           F#m         E
Porque voy a salir esta noche contigo se quedaran sin beatos las catedrales
       F#        E      D      F#m          F#
y seremos dos gatos al abrigo de los portales.

Que se enfaden las flores, que vuelvan las cigüeñas al calendario,
que sufran por amores los dictadores y los notarios.
Que se muera el olvido, que se escondan las llaves de los juzgados,
que se acuerde Cupido de los maridos abandonados.

Porque voy a salir esta noche contigo se quedaran sin coartada los criminales
y serás mi invitada en paraisos artificiales


Punteo:

E|-|-16--16-14-12------------------7-6-7-7/9vvv-----------------
B|-|--------------15-15vvv------7-7--------------7-9-10-10-9-7--
G|-|-----------------------12-----------------------------------
D|-|------------------------------------------------------------
A|-|------------------------------------------------------------
e|-|------------------------------------------------------------

E|-|---10-10-8-------------------------------------|-|
B|-|-7---------10-7-10-10-7vvv---------------------|-|
G|-|--------------------------------------3/4vvvv--|-|
D|-|-----------------------------2vvv-0------------|-|
A|-|------------------------------------2----------|-|
e|-|-----------------------------------------------|-|

       G                    A                E               B
Cuando llegue por fin mi mensaje a tus manos en la gasolinera vieja esperaré;
    G             A         F#
y tomaremos juntos al abordaje la carretera que te conté.
              B    A/B 
Dejaremos colgada      
   B      F#      A        B          F#               F#7            B   A/B  B  B7    
la caprichosa luna sobre los cines y las estatuas públicas derribadas en los jardines.


Porque voy a salir esta noche contigo se quedaran sin medallas los generales
y seremos los gatos más canallas de los portales.

Fuente original: LaCuerda
Colaborador original: pablo rodriguez [ahmarinos @hotmail.com]
Aviso: Este fichero es trabajo propio de su transcriptor y representa su interpretación personal de la canción. El material contenido en esta página es para exclusivo uso privado, por lo que se prohibe su reproducción o retransmisión, así como su uso para fines comerciales.

Califica esta canción


Comentarios en Facebook