Enviado por:
Anonimo

Joaquin Sabina, Dieguitos Y Mafalfas

Imprimir
Re7 (5º traste)                     Solm (3r traste)       Solm (3r 
traste)                                        
    |-------5--8--6--5-----------------|----------------------|-------5-----
    |----7--------------8--7-----------|----------------------|-------------
    |-7-----------------------8--7--5--|-3--------------------|-------------
    |----------------------------------|----------------------|-------------
    |----------------------------------|----------------------|-------------
    |----------------------------------|----------------------|-------------
    1                                  2                      3          
    
                        
Rem                                 Mi9           Mi7
    6--5--8--6--5-----|-5-----------------6-5-------------|---------------------
    ---------------8--|------6----------------8-6-5-------|-5---6-6-5--5--------
    ------------------|-----------------------------7-6-7-|---------------7-----
    ------------------|-----------------------------------|---------------------
    ------------------|-----------------------------------|---------------------
    ------------------|-----------------------------------|---------------------
                      4                                   5                    
    
              
La7 (5º traste)                               
    --------|------------------
    --------|-5----------------
    6-7-----|------6-----------
    --------|--------7---------
    --------|------------------
    --------|------------------
            6                      


           Rem        La7            
Rem                 Rem y La7 en 5º traste
    Veinte años,         cosidos a retazos
                 Sib7           La7                      Sib7 en 6º traste
    de urgencias, disimulos y rutinas
           Solm                   La7                                    
Rem
    veinte años, cumplidos en mis brazos      con la carne del alma de gallina.
               La7             Rem    Re7                    Solm
    Veinte años, de principes azules,     que se marchaban antes de llegar
                                    Rem          Mi7                    
La7
    veinte tangos de Manzi en los baúles, veinte siglos sin cartas de papá

Fuente original: LaCuerda
Colaborador original: Héctor Aranda [[email protected]]
Aviso: Este fichero es trabajo propio de su transcriptor y representa su interpretación personal de la canción. El material contenido en esta página es para exclusivo uso privado, por lo que se prohibe su reproducción o retransmisión, así como su uso para fines comerciales.

Califica esta canción


Comentarios en Facebook