Enviado por:
Anonimo

Joaquin Sabina, De Purisima Y Oro

Imprimir
Intro: (a la vez se tocan estos acordes)
G7 C 53 52 50
G7 C Dm Am B7 E


e----------------9-10-10-9-10-11-12-------
b----10-11-12-13--------------------10----
g--12----------------------------------12-


e----------------9-10-10-9-10-11-12-
b----10-11-12-13--------------------
g--12-------------------------------

e-15-13-12-10-10-9-10-13-11-13-11-13-11-13-10-8-
b-----------------------------------------------
g-----------------------------------------------

e-7/7/7--8/8/8--5/5/5--10/10/10--8/8/8--7/7/7--(mandolina)
b----------------------------------------------
g----------------------------------------------

Fuente original: LaCuerda
Colaborador original: Eddy Tellez [[email protected]]
Aviso: Este fichero es trabajo propio de su transcriptor y representa su interpretación personal de la canción. El material contenido en esta página es para exclusivo uso privado, por lo que se prohibe su reproducción o retransmisión, así como su uso para fines comerciales.

Califica esta canción


Comentarios en Facebook