Enviado por:
Anonimo

Joaquin Sabina, Cuando Me Hablan Del Destino

Imprimir
Intro:
e|-7p8-7-5----------7-5-------------------------------------------|
B|---------8-6-5--------8-6-5---------------------5-------5-----5-|
G|---------------7------------7-5-------4-5-7-5-4---4-5-7---7-4---|
D|----------------------------------7-7---------------------------|
A|----------------------------------------------------------------|
E|----------------------------------------------------------------|

e|-7p8-7-5----------7-5--------------------------------------------|
B|---------8-6-5--------8-6-5---------------------5----------------|
G|---------------7------------7-5-------4-5-7-5-4---4-4/7-5--------|
D|----------------------------------7-7---------------------7------|
A|-----------------------------------------------------------------|
E|-------------------------------------------------------------0/5-|

                       Am           Dm           Am
Yo era un capo en el ambiente, derrochaba adrenalina;
                     B                            E
me presentaba en Corrientes, tenía palco en el Colón,
     Dm            C         Bb            Am
manejaba un convertible, no escatimaba propinas,
       Dm         C               B         Am
las quimeras imposibles de otros eran mi rutina,
    Am             Dm       B               E
no había nacido la mina, que me dijera que no.

      Am            Dm         F              Am
Pero pucha un veintinueve de aquél febrero bisiesto,
                       Dm           Bb           E
me vi pernoctando un jueves en un banco de estación,
    Dm                 C               Bb         A
sin más ajuar que lo puesto, ni credit card ni cobija,
    Dm                   C            B           Am
las ratas que huían del marco del retrato de mis hijas
       Dm             Am                 B           Am
me afanaron hasta el marco creyendo que era... art deco.

Puente con:
(Gatsie don Callóyeno!!!) (Adío don Tomasino!!!)
(Mama mía andiamo a lamérica)
de fondo.

e|-7p8-7-5----------7-5------------5------------------------------|
B|---------8-6-5--------8-6-5--------8-6-5------------------6-5---|
G|---------------7------------7-5----------7-5-7------4-5-7-----7-|
D|-----------------------------------------------7--7-------------|
A|----------------------------------------------------------------|
E|----------------------------------------------------------------|

e|-7p8-7-5----------7-5------------------------------------------|
B|---------8-6-5--------8-6-5------------------------------------|
G|---------------7------------7-5------4-5-7---7------5-4--------|
D|---------------------------------7-7-------7---7--7-----7------|
A|---------------------------------------------------------------|
E|-----------------------------------------------------------0/5-|

Las coristas y la farras se esfumaron con la guita,
los muchachos de la barra no me echaron ni un piolín.
Charly no tuvo un detalle ni Fito un ¿qué necesitas?
cuando al cabo de la calle rompí mi caricatura
ni el camión de la basura tuvo un gergón para mí.

Disqué el movicom amado de mi gatita de angora
no moleste a la señora contestó el contestador.
Y aprendí que estar quebrado no es el infierno del Dante
ni un currículo brillante la lámpara de Aladino,
cuando me hablan del destino cambio de conversación.

Puente con:
(Adío... ma bella Nápoli adío) (boglio nadonna)
de fondo.

Espejismos rosicleres ya no me fruncen el seño
ni me cobran alquileres las mujeres que olvidé.
Bajo el sol que me apuñala vivo sin patria ni dueño,
como el aire lo regalan y el alma nunca la empeño
con las sobras de mis sueños me sobra para comer.

¿De qué voy a lamentarme? bulle la sangre en mis venas
cada día al despertarme me gusta resucitar.
A quien quiera acompañarme le cambio versos por penas
bajo los puentes del Sena de los que pierden el norte
se duerme sin pasaporte y está mal visto....    llorar.

(¡¡Don Tomasino!!) (Adío...)

Fuente original: LaCuerda
Colaborador original: Ever Casella [[email protected]]
Aviso: Este fichero es trabajo propio de su transcriptor y representa su interpretación personal de la canción. El material contenido en esta página es para exclusivo uso privado, por lo que se prohibe su reproducción o retransmisión, así como su uso para fines comerciales.

Califica esta canción


Comentarios en Facebook