Enviado por:
Anonimo

Joaquin Sabina, Contigo

INTRO

ESTE LO SAQUE DEL DISCO DE NOS SOBRAN LOS MOTIVOS, Y NO SE SI EN EL SENCILLO 
SEA IGUAL, CORRECCIONES ME LAS HACEN SABER. Y SI TIENEN LOS ACORDES LES 
AGRADECERE QUE ME LOS MANDEN, LOS QUE ESTAN AQUI NO ME SUENAN


e--------------------------------|------------------------------|--------------
B------------9--12--10--9-9v-----|----------9-9-----9-----------|-----9--------
G----9---11-(9)---------------11-|---9--11------11-----(11)-9---|-9-----11-----
D-----------(9)------------------|------------------------------|--------------
A--------------------------------|------------------------------|--------------
E--------------------------------|------------------------------|--------------



                                        |ESTAS 3 NOTAS NO ESTOY MUY SEGURO SI ESTEN CORRECTAS)
e----9----------------------------------|------11---14------
B--------12---9------------9------------|--12---------------
G----------------8--9--11----11--9--11--|-------------------
D---------------------------------------|-------------------
A---------------------------------------|-------------------
E---------------------------------------|-------------------

Fuente original: LaCuerda
Colaborador original: gerardo garcia castro [[email protected]]
Aviso: Este fichero es trabajo propio de su transcriptor y representa su interpretación personal de la canción. El material contenido en esta página es para exclusivo uso privado, por lo que se prohibe su reproducción o retransmisión, así como su uso para fines comerciales.

Califica esta canción


Comentarios en Facebook