Enviado por:
Anonimo

Joaquin Sabina, Calle Melancolia

CALLE MELANCOLÍA
					  (nos sobran los motivos)



ESTE ARPEGIO SE REPITE 6 VECES ANTES DEL PUNTEO:



    D          C9
                       >
E------->--------------0----------|
B-------3--(3)-------3---3---3----|
G-----2--(2)-(2)---0-------0------|
D---0-----------------------------|
A---------------3-----------------|
E---------------------------------|


E-------------------------------------------------------------------------
B-------------------------------------------------------------------------
G--------7-5-42—0h2-2///--7-5-42-0----------------bend---------------
D--4h5h7--------------------------------4h5h7-4-0-------/)----------------
A--------------------------------------------------0h3—-7---5—5/7---5-5---
E----------------------------------------------------------------7--------


                                     A
E------------------------------------5---|
B-------------------------------(7)—-5---|
G----------bend---------------(7)----6---|
D---4h5h7---/)-----------------------7---|
A-----------7----5--5/7---5-5--------7---|
E-----------------------7------------5---|





TODAS LAS ESTROFAS SON IGUALES ALTERANDO EL ARPEGIO DE
CADA ACORDE, EN CADA CASO, DE MANERA SENCILLA:



A                     Bm    G      A          D
  “Como quien viaja a lomos de una yegua sombría
A                Bm  G     E           A
 por la ciudad camino, no preguntéis a dónde.
C                   G    F         A         D
 Busco, acaso, un encuentro que me ilumine el día
A                    Bm         G       A        D
 y no hallo más que puertas que niegan lo que esconden.”





(“…pero y además de cantar me pagáis”)

							SOLO



E—-(7)/8--(5)/7-—8-7---------------------------------------------------------------
B--------------------10-8-8h10-----8p7---7-8/10--8p7-------------------------------
G------------------------------7-7-----9-------------9-7-5/7-7----------7-7/9-7----
D----------------------------------------------------------------7-9-10------------
A----------------------------------------------------------------------------------
E----------------------------------------------------------------------------------

                                                 A
E--------------------------------------->------------------5----|
B--------------------------------------------------(7)-----5----|
G-------->----------------------------7-7/9—7—-4h7—--(7)---6----|
D---10-9-9h10—9-9—-7r5p7-—10-9-7-9-10----------------------7----|
A----------------------------------------------------------7----|
E----------------------------------------------------------5----|


    A   Bm   G    D    E   C    F

E----0----2----3----2----0----0----1---||
B----2----3----3----3----0----1----1---||
G----2----4----0----2----1----0----2---||
D----2----4----0----0----2----2----3---||
A----0----2----2----0----2----3----3---||
E----0----2----3----x----0----0----1---||




h: hammer on

p: pull off

b: bend

///: vibratto

>: nota acentuada

.: nota picada (stacatto)

/: slide ascendente

: slide descendente

/): bend y regreso

r: release (liberar)





GATO.

Fuente original: LaCuerda
Colaborador original: gato [[email protected]]
Aviso: Este fichero es trabajo propio de su transcriptor y representa su interpretación personal de la canción. El material contenido en esta página es para exclusivo uso privado, por lo que se prohibe su reproducción o retransmisión, así como su uso para fines comerciales.

Califica esta canción


Comentarios en Facebook