Enviado por: Anonimo
Agrandar Letra
Reducir Letra
Imprimir


Otras Versiones de Cantares:




Joan Manuel Serrat, Cantares

|---------------------------------------------------------------------------|
|-----------0--0-------------------0--3-0---3-0---0-------------------------|
|--0-0-0--2-------2-0-0-0-0-2-0-2---------0-----0---0----0-0-----2--0----0--|
|-------------------------------------------------------------2--------4----|
|---------------------------------------------------------------------------|
|---------------------------------------------------------------------------|

|---------------------------------------------------------------------------|
|-3--0-----3-0-----0--0------------0-------0-1-0----------------------------|
|-------0-------0--------0-0-2-0-2---2-0-2-------2-0-|2 0|------------------|
|---------------------------------------------------------------------------|
|---------------------------------------------------------------------------|
|---------------------------------------------------------------------------|

|---------------------------------------------------------------------------|
|-------------0-0-0---0-------------0-0---------3--3--1--0--1---------------|
|-0-0-0-0-0-2-------2---0-0-0-0-0-2-----0----------------------2-0-2----0---|
|--------------------------------------------0------------------------4-----|
|---------------------------------------------------------------------------|
|---------------------------------------------------------------------------|


|-0--0-----0--0-----------------------------------------------0-------------|
|-------3--------3--1--1--0-----------------------0-----0---------3--1-0----|
|----------------------------0--0--0--2--0-----0-----0-----0----------------|
|-------------------------------------------4-------------------------------|
|---------------------------------------------------------------------------|
|---------------------------------------------------------------------------|

Fuente original: LaCuerda
Colaborador original: l0stb0y [[email protected]]
Aviso: Este fichero es trabajo propio de su transcriptor y representa su interpretación personal de la canción. El material contenido en esta página es para exclusivo uso privado, por lo que se prohibe su reproducción o retransmisión, así como su uso para fines comerciales.

Califica esta canción


Comentarios en Facebook