Acordes y tablaturas para guitarra

Acordes y Tablaturas
Usuario: Password:

Buscar:
Acordes y Tablaturas >> Letra H >> Acordes de Heroes del silencio >> Maldito duende
Bajo de Maldito duende, Heroes del silencio

Maldito duende

Heroes del silencio






/ slide

intro
  4/4  4/4
G|----|----|------|
D|----|----|------|
A|----|----|--/(7)-|
E|----|----|------|

Verso 1
Verso 2

1)He oído que la noche Es toda magia
2)Las distancias se... Pasan rapidas...

G|---------------------------------|
D|---------------------------------|
A|--7--77---7--77-----3--33---3--33|
E|---------------------------------|

 Y que un duende te invita a soñar
 Y este cuarto no para de menguar
G|---------------------------------|
D|---------------------------------|
A|--5---55---5---55------52--22----|
E|---------------------------------|

 Y se que últimamente   Apenas he parado
 Y tantas cosas por..   Tanta charla por aquí
G|--------------------------------------|
D|--------------------------------------|
A|2--22--7--77--7--77---3--33---3--33---|
E|--------------------------------------|
                         
 Y tengo la impresión de divagar.
 Si fuera posible escapar de este lugar
G|------------------------------------|
D|------------------------------------|
A|-5---55---5---55-----5-2--22---2--22|
E|------------------------------------|

Coro
  Amanece tan pronto   Y yo estoy tan solo
  Las estrellas...     Y te sirven de guía
G|-----------------------------------------|
D|-----------------------------------------|
A|--7--77---7--77-----3--33---3--33---3--33|
E|-----------------------------------------|

 Y no me arrepiento de lo de ayer.
G|-------------------------------------|
D|-------------------------------------|
A|-5---55---5---55-----5-2--22---2--22-|
E|-------------------------------------|


 Te sientes tan fuerte que piensas 
G|-------------------------------------|
D|-------------------------------------|
A|-5---55---5---55-----5-2--22---2--22-|
E|-------------------------------------|

 que nadie te puede tocar. 
G|-----------------------|--------------|(x2)
D|-----------------------|°------------°|
A|--------REST-----------|°/7----3----5°|
E|-----------------------|--------------|

 Oh, oohohoohoh, ohohohoooo, ohohohoooo
 (outro)
G|-------------------------------------------------------------|
D|-------------------------------------------------------------|
A|7--77---7--77---2--22---2--22---5--55---5--55---2--22---2--22|
E|-------------------------------------------------------------|

Solo hay que seguir la letra de la canción!
Marcos Guerrero...[email protected]

Fuente original: LaCuerda
Colaborador original: Marcos Guerrero [[email protected]]

Que te parecio? Calificalo con estrellas!!

Rating: 5.4/10 (36 votos)

Este fichero es trabajo propio de su transcriptor y representa su interpretación personal de la canción. El material contenido en esta página es para exclusivo uso privado, por lo que se prohibe su reproducción o retransmisión, así como su uso para fines comerciales.


Deja tus comentarios:

Letras de Heroes del silencio
Letras de canciones | Musica Independiente