Acordes y tablaturas para guitarra

Acordes y Tablaturas
Usuario: Password:

Buscar:
Acordes y Tablaturas >> Letra H >> Acordes de Heroes del silencio >> Maldito duende
Tablatura de Maldito duende, Heroes del silencio

Maldito duende

Heroes del silencio






Miguel Alejandro Díaz Palmerín
México


INTRO: w/flanger & Delay

 Bm
                                                                     He oi___
|------------------------------------------------------------------------------|
|--4------4-----4------2------4----4-----4-----4----4------2------4-----4------|
|----4------------4------4-----------4-----4----------4------4------------4----|
|------2-----2------2------2-----2-----2-----2----2-----2------2-----2------2--|
|------------------------------------------------------------------------------|
|------------------------------------------------------------------------------|

Verse 1
  Em                                  C
  do   que  la________  no_che______  e__S  toda____  ma_gia_________

|-----------------------------------|------------------------------------|
|------8--7--------------8--7-------|-------8-7-------------8--7---------|
|-----------9---9--------------9----|-----9-----9---9-------------9------|
|---9---------9-------9----------9--|---9---------9-------9----------9---|
|-7----------------7----------------|------------------------------------|
|-----------------------------------|-8-----------------8----------------|

 D                                    Bm 
 y  que un duen_de____ te invita__ a  so__ña__r         y se_ que u___  

|------------------5----------------|------------------------------------|
|----------7-----------8---7--------|-----------------------7------------|
|-----7------7---7---7---7---7------|-----------------7-------7----------|
|---7---7------7---------------7----|---9-----9-----9---9-------9--------|
|-5------------------------------5--|-----9-----9---------9-------9------|
|-----------------------------------|-7-----7-----7----------------------|

  Em                                  C
     ltima__me___n_te_______         apena____s he____ parado__________ 

|-----------------------------------|------------------------------------|
|------8--7--------------8--7-------|-------8-7-------------8--7---------|
|-----------9---9--------------9----|-----9-----9---9-------------9------|
|---9---------9-------9----------9--|---9---------9-------9----------9---|
|-7----------------7----------------|------------------------------------|
|-----------------------------------|-8-----------------8----------------|

 D                                    Bm 
 y te__ngo  la  impresio__n  de divaga__r                         Ama___ne

|------------------5----------------|------------------------------------|
|----------7-----------8---7--------|-----------------------7------------|
|-----7------7---7---7---7---7------|-----------------7-------7----------|
|---7---7------7---------------7----|---9-----9-----9---9-------9--------|
|-5------------------------------5--|-----9-----9---------9-------9------|
|-----------------------------------|-7-----7-----7----------------------|

Chorus
 
 Em                                     G
____ce   ta__n    pron___to______  y   yo  esto__y   t__an    solo______

|-----------------------------------|-3-----3------3-----3-----3----3----|
|-8----8-7------------8-7-----------|-3-----3------3-----3-----3----3----|
|-9--------9-7-9----9-----9---------|-4-----4------4-----4-----4----4----|
|-9--9------------9---------9-------|-5-----5------5-----5-----5----5----|
|-7---------------------------------|-5-----5------5-----5-----5----5----|
|-----------------------------------|-3-----3------3-----3-----3----3----|

  D                                   Bm
 y no me arrepiento__oh_ de lo de a__ye_____r                      Las es__

|-5------------5--------------------|-----------------------2------------|
|-7----7-----------8---7------------|-----------------3-------3----------|
|-7-7----7---7---7---7---7----------|-4-4-----4-----4---4-------4--------|
|-7---7----7---------------7--------|-4---4-----4---------4-------4------|
|-5--------------------------5------|-2-----2-----2----------------------|
|-5---------------------------------|------------------------------------|

 Em                                     G
 _tre__llas te ilumina__n oh___ y te sirve__n de gui__a____          te

|-----------------------------------|-3-----3------3-----3-----3----3----|
|-8----8-7------------8-7-----------|-3-----3------3-----3-----3----3----|
|-9--------9-7-9----9-----9---------|-4-----4------4-----4-----4----4----|
|-9--9------------9---------9-------|-5-----5------5-----5-----5----5----|
|-7---------------------------------|-5-----5------5-----5-----5----5----|
|-----------------------------------|-3-----3------3-----3-----3----3----|

  D                                   Bm
 sien_tes  tan  fue_rte_   que piensa__s       que   nadie_  te pue__de__

|-5------------5--------------------|-----------------------2------------|
|-7----7-----------8---7------------|-----------------3-------3----------|
|-7-7----7---7---7---7---7----------|-4-4-----4-----4---4-------4--------|
|-7---7----7---------------7--------|-4---4-----4---------4-------4------|
|-5--------------------------5------|-2-----2-----2----------------------|
|-5---------------------------------|------------------------------------|


Interlue

 to__ca__r

  Em            D                      C                       D              Em

|-0-----------|-------10----10-------|---------7-----7-------|-----------7---|---------0-----0----------|
|-8---8---8---|-7--------------7-----|--8---------------8----|--7------8---8-|-----8-----8-----8--------|
|-9-----------|---7---------------7--|----9-------9--------9-|----7----------|-7h9---9-----9-----9------|
|-9-9---9---9-|-----7-----7----------|------10---------------|------7--------|--------------------------|
|-7-----------|----------------------|-----------------------|---------------|--------------------------|
|-------------|----------------------|-----------------------|---------------|--------------------------|

  D                        C                      D

|-------10-----10--------|--------7-----7-------|-----------------------|
|-7----------------7-----|-8---------------8----|-7-------8-7h8p7-------|
|---7-----------------7--|---9-------9--------9-|----7-------------9--7-|
|-----7-----7------------|-----10---------------|-------7---------------|
|------------------------|----------------------|-----------------------|
|------------------------|----------------------|-----------------------|

 Em                                         Bm
  
|-----------------------------------------|-----------------------------3---2------------------|
|-0-----3---1--0-----0-------3----1--0----|------3----2------------------------3--2------------|
|-0--0------------2---------------------0-|-4-----------4--2--4------4-------------------------|
|-2--2----2---------------2-----2---------|-4--4----4--------------4------4--------------------|
|-2--2------------------2-----------------|-2--2-----------------------------------------------|
|-----------------------------------------|----------------------------------------------------|

  G         D           G         D
                                                                                           La_s
|--------------------------------------------|-------------------------------------------------|
|-0------3-----1--0-----0------3-----1--0----|-------------------------------------------------|
|---0-------2--------2----0-------2--------2-|--4-----4----4------4--4--4--4---4--4---4--4--4--|
|-----0---------------------0----------------|----4----------4----4--4--4--4---4--4---4--4--4--|
|--------------------------------------------|------2----2-----2--2--2--2--2---2--2---2--2--2--|
|--------------------------------------------|-------------------------------------------------|


Verse 2

  E5                                     C5                             D5
 dista__ncias se hacen co_rta__s  pasan ra__pida_s  la___s hora____s  y e_ste cuarto_ no para de 

|--------------------------------------|-------------------------------|--------------------------------|

        B5                    E5                            C5                        D5
 mengua___r    y  tanta__s  co__sa__s po_r decir  tan__ta cha__rla po___r aqui  si fu__era posible 

|------|--------------------|------------------------------|-------------------------|------------------|


                       B5
es__capar de__ este luga____r              Ama__ne

|---------------------|---------------------------|


Chorus
 
 Em                                     G
____ce   ta__n    pron___to______  y   yo  esto__y   t__an    solo______

|-----------------------------------|-3-----3------3-----3-----3----3----|
|-8----8-7------------8-7-----------|-3-----3------3-----3-----3----3----|
|-9--------9-7-9----9-----9---------|-4-----4------4-----4-----4----4----|
|-9--9------------9---------9-------|-5-----5------5-----5-----5----5----|
|-7---------------------------------|-5-----5------5-----5-----5----5----|
|-----------------------------------|-3-----3------3-----3-----3----3----|

  D                                   Bm
 y no me arrepiento__oh_ de lo de a__ye_____r    si uh___         Las es__

|-5------------5--------------------|-----------------------2------------|
|-7----7-----------8---7------------|-----------------3-------3----------|
|-7-7----7---7---7---7---7----------|-4-4-----4-----4---4-------4--------|
|-7---7----7---------------7--------|-4---4-----4---------4-------4------|
|-5--------------------------5------|-2-----2-----2----------------------|
|-5---------------------------------|------------------------------------|

 Em                                     G
 _tre__llas te ilumina__n oh___ y te sirve__n de gui__a____          te

|-----------------------------------|-3-----3------3-----3-----3----3----|
|-8----8-7------------8-7-----------|-3-----3------3-----3-----3----3----|
|-9--------9-7-9----9-----9---------|-4-----4------4-----4-----4----4----|
|-9--9------------9---------9-------|-5-----5------5-----5-----5----5----|
|-7---------------------------------|-5-----5------5-----5-----5----5----|
|-----------------------------------|-3-----3------3-----3-----3----3----|

  D                                   Bm
 sien_tes  tan  fue_rte_   que piensa__s       que   nadie_  te pue__de__

|-5------------5--------------------|-----------------------2------------|
|-7----7-----------8---7------------|-----------------3-------3----------|
|-7-7----7---7---7---7---7----------|-4-4-----4-----4---4-------4--------|
|-7---7----7---------------7--------|-4---4-----4---------4-------4------|
|-5--------------------------5------|-2-----2-----2----------------------|
|-5---------------------------------|------------------------------------|


Interlue

 to__ca__r

  Em            D                      C                       D              Em

|-0-----------|-------10----10-------|---------7-----7-------|-----------7---|---------0-----0----------|
|-8---8---8---|-7--------------7-----|--8---------------8----|--7------8---8-|-----8-----8-----8--------|
|-9-----------|---7---------------7--|----9-------9--------9-|----7----------|-7h9---9-----9-----9------|
|-9-9---9---9-|-----7-----7----------|------10---------------|------7--------|--------------------------|
|-7-----------|----------------------|-----------------------|---------------|--------------------------|
|-------------|----------------------|-----------------------|---------------|--------------------------|

  D                        C                      D

|-------10-----10--------|--------7-----7-------|-----------------------|
|-7----------------7-----|-8---------------8----|-7-------8-7h8p7-------|
|---7-----------------7--|---9-------9--------9-|----7-------------9--7-|
|-----7-----7------------|-----10---------------|-------7---------------|
|------------------------|----------------------|-----------------------|
|------------------------|----------------------|-----------------------|

 Em                                         Bm
  
|-----------------------------------------|------3----2-----------------3---2------------------|
|-0-----3---1--0-----0-------3----1--0----|-------------3--2-------------------3--2------------|
|-0--0------------2---------------------0-|-4-----------------4------4----4--------------------|
|-2--2----2---------------2-----2---------|-4--4----4------------4-----------------------------|
|-2--2------------------2-----------------|-2--2-----------------------------------------------|
|-----------------------------------------|----------------------------------------------------|

  G         D           G         D
                                                                                         Ama__ne
|------------------------------------0-------|-------------------------------------------------|
|-0------3-----1--0-----0------3--------3--1-|-------------------------------------------------|
|---0-------2--------2----0-------2----------|--4-----4----4------4--4--4--4---4--4---4--4--4--|
|-----0---------------------0----------------|----4----------4----4--4--4--4---4--4---4--4--4--|
|--------------------------------------------|------2----2-----2--2--2--2--2---2--2---2--2--2--|
|--------------------------------------------|-------------------------------------------------|

Chorus
 
 Em                                     G
____ce   ta__n    pron___to______  y   yo  esto__y   t__an    solo______

|-----------------------------------|-3-----3------3-----3-----3----3----|
|-8----8-7------------8-7-----------|-3-----3------3-----3-----3----3----|
|-9--------9-7-9----9-----9---------|-4-----4------4-----4-----4----4----|
|-9--9------------9---------9-------|-5-----5------5-----5-----5----5----|
|-7---------------------------------|-5-----5------5-----5-----5----5----|
|-----------------------------------|-3-----3------3-----3-----3----3----|

  D                                   Bm
 y no me arrepiento__oh_ de lo de a__ye_____r    si uh___         Las es__

|-5------------5--------------------|-----------------------2------------|
|-7----7-----------8---7------------|-----------------3-------3----------|
|-7-7----7---7---7---7---7----------|-4-4-----4-----4---4-------4--------|
|-7---7----7---------------7--------|-4---4-----4---------4-------4------|
|-5--------------------------5------|-2-----2-----2----------------------|
|-5---------------------------------|------------------------------------|

 Em                                     G
 _tre__llas te ilumina__n oh___ y te sirve__n de gui__a____          te

|-----------------------------------|-3-----3------3-----3-----3----3----|
|-8----8-7------------8-7-----------|-3-----3------3-----3-----3----3----|
|-9--------9-7-9----9-----9---------|-4-----4------4-----4-----4----4----|
|-9--9------------9---------9-------|-5-----5------5-----5-----5----5----|
|-7---------------------------------|-5-----5------5-----5-----5----5----|
|-----------------------------------|-3-----3------3-----3-----3----3----|

  D                                   Bm
 sien_tes  tan  fue_rte_   que piensa__s       que   nadie_  te pue__de__

|-5------------5--------------------|-----------------------2------------|
|-7----7-----------8---7------------|-----------------3-------3----------|
|-7-7----7---7---7---7---7----------|-4-4-----4-----4---4-------4--------|
|-7---7----7---------------7--------|-4---4-----4---------4-------4------|
|-5--------------------------5------|-2-----2-----2----------------------|
|-5---------------------------------|------------------------------------|

  Em                      Em                                      Em

 to____ca______r

|--0------------0-------|---------------------------------------|------3--2-------------3--2------------|
|--8------------8-------|-5--5--5--5--5--5--5--5--5--5--5--5--5-|-5----------5--3------------5--3-------|
|--9------------9-------|-4--4--4--4--4--4--4--4--4--4--4--4--4-|---4--------------4--------------4-----|
|--9------------9-------|-2--2--2--2--2--2--2--2--2--2--2--2--2-|---------------------5--------------4--|
|--7--------------------|---------------------------------------|---------------------------------------|
|--0--------------------|---------------------------------------|---------------------------------------|

  Bm                                    G        D           G          D

|--3--2----------------3--2----------|--------------0-----------------------0---------|
|--------3--2-----------------3---2--|--0-----3--------3--1--0--------3--------3--1---|
|--------------4---------------------|----0------2--------------0--------2------------|
|-----------------4------------------|------0----------------------0------------------|
|------------------------------------|------------------------------------------------|
|------------------------------------|------------------------------------------------|

  Bm                                         D5                   Em

|------------------------------------------|--------------------|--7--|
|------------------------------------------|--------------------|--8--|
|--4------4-----4---------4--x--x--4--x--x-|--7--x--x--7--x--x--|--9--|
|----4-------------4------4--x--x--4--x--x-|--7--x--x--7--x--x--|--9--|
|------2-----2--------2---2--2--2--2--2--2-|--5--5--5--5--5--5--|--7--|
|------------------------------------------|--------------------|--7--|

Fuente original: LaCuerda
Colaborador original: ]

Que te parecio? Calificalo con estrellas!!

Rating: 6.8/10 (76 votos)

Este fichero es trabajo propio de su transcriptor y representa su interpretación personal de la canción. El material contenido en esta página es para exclusivo uso privado, por lo que se prohibe su reproducción o retransmisión, así como su uso para fines comerciales.


Deja tus comentarios:

Letras de Heroes del silencio
Letras de canciones | Musica Independiente