Acordes y tablaturas para guitarra

Acordes y Tablaturas
Usuario: Password:

Buscar:
Acordes y Tablaturas >> Letra H >> Acordes de Heroes del silencio >> La sirena varada
Tablatura de La sirena varada, Heroes del silencio

La sirena varada

Heroes del silencio






step
                                                           1=G  4=F
                                                           2=D  5=C
                                                           3=A# 6=G

F#m  E  D  A  C#m  Bm 

Intro
Verse 1
Rhy.Fig. 1
  (F#m)                                 (A)
|--------------------------------------|--------------------------------|
|--------------------------------------|--------------------------5-----|
|--------6--------7--6-------------6---|-------6-------7-6------6---6---|
|---4-4-----4--4-------4--4-6--6h7---7-|----7-----7-7-------7-7-------7-|
|--------------------------------------|--------------------------------|
|--------------------------------------|-5------------------------------|
 w/flanger. 

  (D)                (E)                (D)      End Rhy.Fig 1
|--------------------|-----------------|----(5)--(5)-5---5---|
|--------------------|-----------------|-----5----5--5---5---|
|--------6--4--6-----|------9-----9----|-----7----7--7---7---|
|-----7-----------7--|---9-----9-----9-|-----7----7-(7)------|
|--5-----------------|7----------------|-5-------------------|
|--------------------|-----------------|---------------------|

 F#m                                       E
 Y me he enredado siempre entre al--gas, maraña contra los dedo-----s,
|------------------0------------0---------|0--------0----------------0--|
|-----------0----------0-------------0----|0--0---------0------0--------|
|-----2---------2----------2------------2-|1-----1----------1-----1-----|
|--4-----4--------------------------------|2----------------------------|
|--4--------------------------------------|2----------------------------|
|-----------------------------------------|0----------------------------|

 F#m                                       E
 cierras la ma-de-ja------------------ con el fasti-dio- del destino----
|-------------------------------2---------|0---------0---------0--------|
|-----------0--------2--------------2-----|0--0-------------0-----0----0|
|----2---------2--------2---------------2-|1-----1-------1-----------1--|
|-------4---------4--------4--------------|2----------------------------|
|-4---------------------------------------|2----------------------------|
|-----------------------------------------|0----------------------------|

 D                                    F#m
 y el mordisco--- lo da--n otro--s;   encia--s en-san-gre---ntadas
|-3----3----3------3----(3)---3------|-2---2----------2-----2-----2-----|
|-2----2----2------2-----2----2------|-2---2-----2----2-----2-----2-----|
|-3----3----3------3-----3----3------|-2---2-----2---(2)----2-----2-----|
|-0--------(0)-----------0-----------|-4--(4)----4----------4-----------|
|------------------------------------|-4---------4----------4-----------|
|------------------------------------|----------------------------------|

 D                                     E
 y mirada---s de crimi--na--le---s,    a grandes  ras--go--s   
podria--s
|-3----3----3-------3----(3)----3----|-0---(0)---0---0----0---0-----0---|
|-2----2----2-------2-----2-----2----|-0----0----0---0----0---0-----0---|
|-3----3----3-------3-----3-----3----|-1----1----1---1----1---1-----1---|
|-0--------(0)------------0----------|-2----2-------------2--(2)--------|
|------------------------------------|-2--------------------------------|
|------------------------------------|----------------------------------|

 F#m
 se----r tu-----------------           echar el ancla  a  ba-bo----r
|-----------------------------------|---------------------------2-------|
|-----------------------------------|------------0--------2--------2----|
|-----------------------------------|-----2---------2--------2--------2-|
|-4-4-4-4-4-4-4-4--4-4-4-4-4-4-4-4--|--4-----4---------4----------------|
|-4-4-4-4-4-4-4-4--4-4-4-4-4-4-4-4--|--4--------------------------------|
|-2-2-0-2-0-2-0-2--0-2-0-2-0-2-0-2--|-----------------------------------|

 E                               F#m
 y de un extremo la argo-lla---   y del o---tro tu corazo----n 
mien-tras
|-0-----0--------------0--------|------------------------------2--------|
|-0-0------0-----0-----------0--|----------0---------2------------2-----|
|-1---1-------1-----1-----1-----|----2--------2----------2-----------2--|
|-2-----------------------------|4------4--------4-----------4----------|
|2------------------------------|4--------------------------------------|
|-------------------------------|---------------------------------------|

 E                                D
 tanto-----          te  sangra y el mendi-go siempre a tu la-do---
|-------------0-----------------|-2----2----2----(2)---2--2---2---2--2--|
|-------0--------0-----0--------|-3----3----3-----3----3--3---3---3--3--|
|-----1----1--------1-----1-----|-2----2----2-----2----2--2---2---2--2--|
|---2------------------------2--|-0----0---(0)----0-----------0---0--0--|
|-------------------------------|-0-------------------------------------|
|-0-----------------------------|---------------------------------------|

 F#m                              D
 tu compañe---ro de vi---a--je--  cuan-do las estrellas se--a--paguen
|-2---2--2---(2)--2-----2----2--|-2-----2----2---2---(2)---2---2---2----|
|-2---2--2----2---2-----2----2--|-3-----3----3---3----3----3---3---3----|
|-2---2--2----2---2-----2----2--|-2-----2----2---2----2----2---2---2----|
|-4---4--4----4---4-----4----4--|-0----(0)------------0----0---0--------|
|-4-----------4--(4)------------|-0-------------------0-----------------|
|-2-----------------------------|---------------------------------------|

 E                                F#m
 tarde o te--m--prano--- tambien vendra--s tu----------------
|-0----0---(0)---(0)---0----0---|--2------------------2-----------------|
|-0----0----0-----0----0----0---|--2------------------2-----------------|
|-1----1----1-----1----1----1---|--2------------------2-----------------|
|-2----2----2-----2----2----2---|--4------------------4-----------------|
|-2-------------------------2---|--4------------------4-----------------|
|---------------------------0---|--2------------------2-----------------|

 Chorus
 A                                E
                               lo---s pa-rpados no aguanta--n ya--------
   due---rme u-n poco ma--------s                                   lue-
|-0--------0----------0----------|0--------0----------------0-----------|
|-2--2-------2----------2--------|0---0-------0------0--------------0---|
|-2-----2-------2--------------2-|1------1---------------1------1-------|
|-2----------------2--------2----|2-------------------------------------|
|-0------------------------------|2---------------2---------------------|
|--------------------------------|0-------------------------------------|

 F#m                               D
 go-- estan la--s decepcio--ne--s cuando el cierzo no--- parece
perdo-nar
|-2--2-----------------------------------0-----------5--------5---------|
|-2-----2---------2--------3----2----2------2-----------2---------2-----|
|-2------------------------------------3-------3-----------3----------3-|
|-4---------4----------4-----------0--------------0---------------------|
|-4---------------------------------------------------------------------|
|-2---------------------------------------------------------------------|
 
 A                               E
                               var-----da por la rea--lida-d    sufrir
 sirena-- vue--lve al ma---------r                           
|-0--------0----------0----------|0--------0----------------0-----------|
|-2--2-------2----------2--------|0---0-------0------0--------------0---|
|-2-----2-------2--------------2-|1------1---------------1------1-------|
|-2----------------2--------2----|2-------------------------------------|
|-0------------------------------|2---------------2---------------------|
|--------------------------------|0-------------------------------------|

 F#m                               D                                 A
                                                                     _¦
 de a---lucina--cio---ne---s cuando el cie--lo no------ parece-  escu--
|-2--2---------------------------|-------0-----------5--------5---------|
|-2-----2---------2--------3---2-|---2------2-----------2---------2-----|
|-2------------------------------|-----3-------3-----------3----------3-|
|-4---------4----------4---------|-0--------------0---------------------|
|-4------------------------------|--------------------------------------|
|-2------------------------------|--------------------------------------|

 E                              A  D
 cha-----------------r          _¦       
|-0-------------0----------0----0----2------2-2-------2--------2--------|
|-0-------------0----------0----2----3------3-3-------3--------3--------|
|-1-------------1----------1----2----2------2-2-------2--------2--------|
|-2------------------------2----2----0------0-0-------0--------0--------|
|-2------------------------2----0----0-------------------------0--------|
|-0------------------------0----0----0-------------------------0--------|

Verse 2
 F#m                                       E
   Dedi-ca-rte un sue--ño-----     cerrar los ojo----s y senti---r   os-
|---------------------0--------2--------|----------0-------------0------|
|----------0-------------0--------2-----|--0-0--------0-----0------0----|
|----2---------2------------2--------2--|--1---1---------1-----1------0-|
|-4-----4----------4--------------------|--2----------------------------|
|-4-------------------------------------|--2----------------------------|
|---------------------------------------|-------------------------------|
 
 F#m                                       E
 cu------ridad in-mensa----- entregado a una-- lu---------z   como u--n
|-----------------------------2----------|--------0--------------0------|
|----------0--------2------------2-----2-|-0--0------0-----0--------0---|
|----2--------2--------2------------2----|-1----1-------1-----1--------1|
|-------4--------4--------4--------------|-2----------------------------|
|-4--------------------------------------|-2----------------------------|
|----------------------------------------|------------------------------|
 
 D                                    F#m
 la-berinto- de incertidumbre-------- es-quivas la-- pesa--dilla--- y
so-
|-3----3----3------3----(3)---3-----|--2---2----------2-----2-----2-----|
|-2----2----2------2-----2----2-----|--2---2-----2----2-----2-----2-----|
|-3----3----3------3-----3----3-----|--2---2-----2---(2)----2-----2-----|
|-0--------(0)-----------0----------|--4--(4)----4----------4-----------|
|-----------------------------------|--4---------4----------4-----------|
|-----------------------------------|-----------------------------------|

 D                                     E
 brevo--la--r el can-sa-ncio--------- y e-n un instante----- en tierra
o-
|-3----3----3-------3----(3)----3---|--0---(0)---0---0----0---0-----0---|
|-2----2----2-------2-----2-----2---|--0----0----0---0----0---0-----0---|
|-3----3----3-------3-----3-----3---|--1----1----1---1----1---1-----1---|
|-0--------(0)------------0---------|--2----2-------------2--(2)--------|
|-----------------------------------|--2--------------------------------|
|-----------------------------------|-----------------------------------|

  F#m
 tra ve-----------------z
 (F#m)                                  (A)
|--------------------------------------|--------------------------------|
|--------------------------------------|---------------------------5----|
|--------6--------7--6-------------6---|-------6-------7-6-----6-7---6--|
|---4-4-----4--4-------4--4-6--6h7---7-|----7-----7-7-------7----------7|
|--------------------------------------|--------------------------------|
|--------------------------------------|-5------------------------------|

  (D)                (E)                (D)
|-------------------|------------------|----(5)--(5)-5---5--5-5-5-5|
|-------------------|------------------|-----5----5--5---5--5-5-5-5|
|--------6--4--6----|-------9-----9----|-----7----7--7---7--7-7-7-7|
|-----7-----------7-|----9-----9-----9-|-----7----7-(7)-----7-7-7-7|
|--5----------------|-7----------------|-5-------------------------|
|-------------------|------------------|---------------------------|


Verse 3
  A                               C#m
    El miedo- a-- traspasa--r la-- fro-----nte---ra-------  de lo--s
|-----------------------------------------------------------------------|

 
 F#m                      A  C#m
                          _¦  
  no---------mbre-------s  como u----n extra--ño----- huu------------
|-----------------------------------------------------------------------|


 Bm                               E
   dibuja-- la---- espira------l de la de-rro---ta-----------
|-----------------------------------------------------------------------|


 F#m                          E(6) F#m
                           _¦  _¦  _¦
  y o----scure-------ce----            tanto--s  hala--go-----s
|-----------------------------------------------------------------------|


  Bm            E                 F#m         A   D          A  
                                              _¦             _¦  
  so-----l e---n la-- memo-ria--- que se va---------------
|-------------------------------------------------------------|


 E                    A  F#m                  A  E                  
                      _¦                      _¦                    
|-----------------------------------------------------------------------|


Guitar Solo
 F#m                                        E
 w/dist.                                       sl  sl      
|-----------------------------------------------------------------------|
|-----------------------------------------------------------------------|
|-11-11p9---9-11-11--11p9---9-11-11--11p9---9---------------------------|
|---------11--------------11-------------11---9-/-7-/-6-----------------|
|-------------------------------------------------------7---------------|
|----------------------------------------------------------7-----0------|
                                                                   
 F#m                                  E
                 sl                                
|--------------------------------------------------------------------|
|-10-10p9p7-9-10-/-12--10p9h10p9--------------9-9----9---------------|
|---------------------------------11--11p9----9-9----9---------------|
|------------------------------------------11------------------------|
|--------------------------------------------------------------------|
|--------------------------------------------------------------------|
                                                            
 
  D                                                    F#m  A
  sl           A     A     A---------                      ¦--------
|--------------¦-14--¦-14--¦-14------------------------17---¦----------|
|-----14--17--17----17----17---------17p14-17-14-----------17-----------|
|-/16--------------------------------------------16-14------------------|
|-----------------------------------------------------------------------|
|-----------------------------------------------------------------------|
|-----------------------------------------------------------------------|

                          D                                       E
   A----          ^^^^^            A     A     A     A          
^^^^^^^
|--¦--------------------------------¦-----¦-----¦-----¦-----------------|
|-17--p--14------14-----------------¦-17--¦-17--¦-17--¦-----------------|
|------------16--------------14-16-16----16----16----16p14-16-14-16-----|
|-------------------------16--------------------------------------------|
|-----------------------------------------------------------------------|
|-----------------------------------------------------------------------|
                
                F#m                 A         D         E         D
              w/Rhy.Fig.1
                 sl   
|---------------------------------------------|
|-17------------------------------------------|
|----16-14-13---------------------------------|
|--------------14-/-16------------------------|
|---------------------------------------------|
|---------------------------------------------|
                     ^^^^^^^^^^^^^^^
 Chorus
 A                                E
                               lo---s pa-rpados no aguanta--n ya--------
 Y  due---rme u-n poco ma--------s                                  
lue-
|-0--------0----------0----------|0--------0----------------0-----------|
|-2--2-------2----------2--------|0---0-------0------0--------------0---|
|-2-----2-------2--------------2-|1------1---------------1------1-------|
|-2----------------2--------2----|2-------------------------------------|
|-0------------------------------|2---------------2---------------------|
|--------------------------------|0-------------------------------------|

 F#m                               D
 go-- estan la--s decepcio--ne--s cuando el cierzo no--- parece
perdo-nar
|-2--2---------------------------|-------0-----------5--------5---------|
|-2-----2---------2--------3---2-|---2------2-----------2---------2-----|
|-2------------------------------|-----3-------3-----------3----------3-|
|-4---------4----------4---------|-0--------------0---------------------|
|-4------------------------------|--------------------------------------|
|-2------------------------------|--------------------------------------|
 
 A                               E
                               var-----da por la rea--lida-d    sufrir
 sirena-- vue--lve al ma---------r                           
|-0--------0----------0---------|-0--------0----------------0-----------|
|-2--2-------2----------2-------|-0---0-------0------0--------------0---|
|-2-----2-------2-------------2-|-1------1---------------1------1-------|
|-2----------------2-------2----|-2-------------------------------------|
|-0-----------------------------|-2---------------2---------------------|
|-------------------------------|-0-------------------------------------|

 F#m                               D                                A
                                                                    _¦
 de a---lucina--cio---ne---s cuando el cie--lo no------ parece-  escu--
|-2--2----------------------------|------0-----------5--------5---------|
|-2-----2---------2--------3----2-|--2------2-----------2---------2-----|
|-2-------------------------------|----3-------3-----------3----------3-|
|-4---------4----------4----------|0--------------0---------------------|
|-4-------------------------------|-------------------------------------|
|-2-------------------------------|-------------------------------------|


  E                              A   D           E           A
                                _¦                      
 cha-----------------r                 Huu----- hu---------
hu----------    

|------------------------------------------------------------

Fuente original: LaCuerda
Colaborador original: CARLOS ABRAHAM RUIZ OLIVAS =============================== www.atame.org =============================== Este fichero es trabajo propio de su transcriptor y representa su interpretación personal de la canción. El usuario se compromete a utilizar este material únicamente para su aprendizaje y estudio personal. Para poder incluir este fichero en otro sitio Web, es necesario mencionar el origen del mismo [www.atame.org]

Que te parecio? Calificalo con estrellas!!

Rating: 6.7/10 (66 votos)

Este fichero es trabajo propio de su transcriptor y representa su interpretación personal de la canción. El material contenido en esta página es para exclusivo uso privado, por lo que se prohibe su reproducción o retransmisión, así como su uso para fines comerciales.


Deja tus comentarios:

Letras de Heroes del silencio
Letras de canciones | Musica Independiente