Acordes y tablaturas para guitarra

Acordes y Tablaturas
Usuario: Password:

Buscar:
Acordes y Tablaturas >> Letra H >> Acordes de Heroes del silencio >> La chispa adecuada
Tablatura de La chispa adecuada, Heroes del silencio

La chispa adecuada

Heroes del silencio






Una amiga que se llama -//Mariana//- me inspiro para sacar esta cancion 
espero y les guste... MARIANA estes donde estes siempre vas a ser mi gran amiga
!!!!!recuerdalo¡¡¡¡¡           Att: tu amigo Salam
INTRO
    D#                          A#           C#          D#     

---------------------------------------------------------------------------
-----------10-----------------------------1---------------10----------10---
-------------10--9------9p10-9---------3-------1------------10--9-------9--
---------------0--10--10------10-----3---3--5-----------------0--10-10---10
--------------------0------------0-1----------3--------------------0-------
-8-8sl9-9----------------------------------------8-8sl9-9------------------


   A#                               D#                    A#          C#
---------------------------------------------------------------------------
-----------1---10------------------10------------------------------1-------
-------3-------10---10---------------10--9------9p10-9---------3---------1-
-----3---3--------0-10-----------------0--10--10-------10----3---3---5-----
-0-1----------------------------------------0------------0-1-----------3---
--------------------------8-8sl9-9-----------------------------------------

             D#                     A#             F                        

---------------------------------------------------1---1-1----------------
------------10-------------10------------------1---1-------1--------------
--------------10--9-----------9------------3-------2---------2------------
----------------0--10---10------10-------3---3-----3-----------3--0-------
----------------------0-------------0-1------------3----------------------
-8-8sl9-9------------------------------------------1----------------------

            D#                    A#          C#          D#             
Las palabras fueron avispas las ....
-------------------------------------------------4--------------------------
-----------10-----------------------------1---------------10----------10---
-------------10--9------9p10-9---------3-------1------------10--9-------9--
---------------0--10--10------10-----3---3--5-----------------0--10-10---10
--------------------0------------0-1----------3--------------------0-------
--------------------------------------------------8-8sl9-9------------------

  A#                               D#                     A#         C#
                             en un ataud   guardo tu ...
---------------------------------------------------------------------------
-----------1---10------------------10------------------------------1-------
-------3-------10---10---------------10--9------9p10-9---------3---------1-
-----3---3--------0-10-----------------0--10--10-------10----3---3---5-----
-0-1----------------------------------------0------------0-1-----------3---
--------------------------8-8sl9-9-----------------------------------------

            D#                       A#                    F       
 con tu pelo enmarañado queriendo ...
-----------------------------------------------------------1---------------
------------10-------------10------------------1-----------1---------------
--------------10--9-----------9------------3---------------2---------------
----------------0--10---10------10-------3---3-------------3---------------
----------------------0-------------0-1--------------------3---------------
-8-8sl9-9--------------------------------------------------1---------------

   D                   F#m              G#m          D      A           x2
 
--2--2--0--2--2----2--2--2--2--2----3--3--3--3--3----2---0--0--0------------
--3--3--3--3--3----2--2--2--2--2----3--3--3--3--3----3---2--2--2------------
--2--2--2--2--2----2--2--2--2--2----4--4--4--4--4----2---2--2--2------------
--0--0--0--0--0----4--4--4--4--4----5--5--5--5--5----0---2--2--2------------
--0----------------4--4--4--4--4----5--5--5--5--5--------0--0--0------------
--0----------------2--2--2--2--2----3--3--3--3--3---------------------------


            D#                    A#          C#          D#        
      mis manos que aun son de hueso y ...
---------------------------------------------------------------------------
-----------10-----------------------------1---------------10----------10---
-------------10--9------9p10-9---------3-------1------------10--9-------9--
---------------0--10--10------10-----3---3--5-----------------0--10-10---10
--------------------0------------0-1----------3--------------------0-------
----8sl9------------------------------------------8-8sl9-9------------------

 A#            F                  D#                       A#        C# 
   es tu cuerpo...                eras verano y ....
---------------1--1-1-------------------------------------------------------
-----------1---1------1-----------10------------------------------1---------
-------3-------2-------2------------10--9------9p10-9---------3---------1---
-----3---3-----3---------3--0----------0--10--10-------10----3---3---5------
-0-1-----------3-----------------------------0------------0-1-----------3---
---------------1------------------------------------------------------------


             D#                       A#                    F                
que sonrie a las paredes que ...
------------------------------------------------------------1---------------
------------10-------------10-----------------------1-------1---------------
--------------10--9-----------9-----------------3-----------2---------------
----------------0--10---10------10------------3---3---------3---------------
----------------------0-------------0-1---------------------3---------------
-8-8sl9-9---------------------------------------------------1---------------

  D                F#               G#               D   A	     
       no se      distinguir ....
--2--2--0--2--2----2--2--2--2--2----3--3--3--3--3----2---0--0--0------------
--3--3--3--3--3----2--2--2--2--2----3--3--3--3--3----3---2--2--2------------
--2--2--2--2--2----2--2--2--2--2----4--4--4--4--4----2---2--2--2------------
--0--0--0--0--0----4--4--4--4--4----5--5--5--5--5----0---2--2--2------------
--0----------------4--4--4--4--4----5--5--5--5--5--------0--0--0------------
--0----------------2--2--2--2--2----3--3--3--3--3---------------------------
--2--2--0--2--2----2--2--2--2--2----3--3--3--3--3----2---0--0--0------------

  D                F#               G#               D   A    
       no se        distinguir lo     ...
--2--2--0--2--2----2--2--2--2--2----3--3--3--3--3----2---0--0--0------------
--3--3--3--3--3----2--2--2--2--2----3--3--3--3--3----3---2--2--2------------
--2--2--2--2--2----2--2--2--2--2----4--4--4--4--4----2---2--2--2------------
--0--0--0--0--0----4--4--4--4--4----5--5--5--5--5----0---2--2--2------------
--0----------------4--4--4--4--4----5--5--5--5--5--------0--0--0------------
--0----------------2--2--2--2--2----3--3--3--3--3---------------------------

  D                F#               G#               D   A 
       y ahora  estas en mi ....
--2--2--0--2--2----2--2--2--2--2----3--3--3--3--3----2---0--0--0------------
--3--3--3--3--3----2--2--2--2--2----3--3--3--3--3----3---2--2--2------------
--2--2--2--2--2----2--2--2--2--2----4--4--4--4--4----2---2--2--2------------
--0--0--0--0--0----4--4--4--4--4----5--5--5--5--5----0---2--2--2------------
--0----------------4--4--4--4--4----5--5--5--5--5--------0--0--0------------
--0----------------2--2--2--2--2----3--3--3--3--3---------------------------

  D                F#               G#               D   A
     todo arde    si le aplicas     la ....
--2--2--0--2--2----2--2--2--2--2----3--3--3--3--3----2---0--0--0------------
--3--3--3--3--3----2--2--2--2--2----3--3--3--3--3----3---2--2--2------------
--2--2--2--2--2----2--2--2--2--2----4--4--4--4--4----2---2--2--2------------
--0--0--0--0--0----4--4--4--4--4----5--5--5--5--5----0---2--2--2------------
--0----------------4--4--4--4--4----5--5--5--5--5--------0--0--0------------
--0----------------2--2--2--2--2----3--3--3--3--3---------------------------

 D#               A#       C#         D#              C#     A#     C#   
 
-5-5-5--5-5-5----1-1-1-1---3-3-3-3----5-5-5--5-5-5----3-3-3--1-1-1--3-3-3---
-6-6-6--6-5-6----1-1-1-1---3-3-3-3----6-6-6--6-5-6----3-3-3--1-1-1--3-3-3---
-7-7-7--7-7-7----3-3-3-3---5-5-5-5----7-7-7--7-7-7----5-5-5--3-3-3--5-5-5---
-7-7-7--7-7-7----3-3-3-3---5-5-5-5----7-7-7--7-7-7----5-5-5--3-3-3--5-5-5---
-----------------1-1-1-1---3-3-3-3----7-7-7--7-7-7----3-3-3--1-1-1--3-3-3---
----------------------------------------------------------------------------

 D#               A#        C#         D#              C#     A#     C# 

-5-5-5--5-5-5----1-1-1-1---3-3-3-3----5-5-5--5-5-5----3-3-3--1-1-1--3-3-3---
-6-6-6--6-5-6----1-1-1-1---3-3-3-3----6-6-6--6-5-6----3-3-3--1-1-1--3-3-3---
-7-7-7--7-7-7----3-3-3-3---5-5-5-5----7-7-7--7-7-7----5-5-5--3-3-3--5-5-5---
-7-7-7--7-7-7----3-3-3-3---5-5-5-5----7-7-7--7-7-7----5-5-5--3-3-3--5-5-5---
-----------------1-1-1-1---3-3-3-3----7-7-7--7-7-7----3-3-3--1-1-1--3-3-3---
----------------------------------------------------------------------------


      D#                     A#        C#                 D#  
el fuego que era a veces propio la ceniza ....
---------------------------------------------------------------------------
-----10-----------------------------1--------------------10----------10---
-------10---9------9p10-9----------3-------1---------------10--9-------9--
----------0--10--10------10-----3---3--5----------------------0--10-10---10
---------------0------------0-1----------3-------------------------0-------
----------------------------------------------8-8sl9-9---------------------

  A#                               D#                     A#         C# 
 resbalando por la espina dorsal ya ...
---------------------------------------------------------------------------
-----------1---10------------------10------------------------------1-------
-------3-------10---10---------------10--9------9p10-9---------3---------1-
-----3---3--------0-10-----------------0--10--10-------10----3---3---5-----
-0-1----------------------------------------0------------0-1-----------3---
--------------------------8-8sl9-9-----------------------------------------


            D#                       A#             F                        
  si miramos la laguna como ....
----------------------------------------------------1----------------------
------------10-------------10------------------1----1----------------------
--------------10--9-----------9------------3--------2----------------------
----------------0--10---10------10-------3---3------3----------------------
----------------------0-------------0-1-------------3----------------------
-8-8sl9-9-------------------------------------------1----------------------

   D               F#                G#              D    A                
       no se      distinguir entre    ....
--2--2--0--2--2----2--2--2--2--2----3--3--3--3--3----2---0--0--0------------
--3--3--3--3--3----2--2--2--2--2----3--3--3--3--3----3---2--2--2------------
--2--2--2--2--2----2--2--2--2--2----4--4--4--4--4----2---2--2--2------------
--0--0--0--0--0----4--4--4--4--4----5--5--5--5--5----0---2--2--2------------
--0----------------4--4--4--4--4----5--5--5--5--5--------0--0--0------------
--0----------------2--2--2--2--2----3--3--3--3--3---------------------------
--2--2--0--2--2----2--2--2--2--2----3--3--3--3--3----2---0--0--0------------

  D                 F#               G#              D    A 
       no se        distinguir ....
--2--2--0--2--2----2--2--2--2--2----3--3--3--3--3----2---0--0--0------------
--3--3--3--3--3----2--2--2--2--2----3--3--3--3--3----3---2--2--2------------
--2--2--2--2--2----2--2--2--2--2----4--4--4--4--4----2---2--2--2------------
--0--0--0--0--0----4--4--4--4--4----5--5--5--5--5----0---2--2--2------------
--0----------------4--4--4--4--4----5--5--5--5--5--------0--0--0------------
--0----------------2--2--2--2--2----3--3--3--3--3---------------------------

  D                F#                G#               D   A
       y ahora  estas en mi lista de ....
--2--2--0--2--2----2--2--2--2--2----3--3--3--3--3----2---0--0--0------------
--3--3--3--3--3----2--2--2--2--2----3--3--3--3--3----3---2--2--2------------
--2--2--2--2--2----2--2--2--2--2----4--4--4--4--4----2---2--2--2------------
--0--0--0--0--0----4--4--4--4--4----5--5--5--5--5----0---2--2--2------------
--0----------------4--4--4--4--4----5--5--5--5--5--------0--0--0------------
--0----------------2--2--2--2--2----3--3--3--3--3---------------------------

   D               F#                G#               D    A
     todo arde    si le aplicas     .....
--2--2--0--2--2----2--2--2--2--2----3--3--3--3--3----2---0--0--0------------
--3--3--3--3--3----2--2--2--2--2----3--3--3--3--3----3---2--2--2------------
--2--2--2--2--2----2--2--2--2--2----4--4--4--4--4----2---2--2--2------------
--0--0--0--0--0----4--4--4--4--4----5--5--5--5--5----0---2--2--2------------
--0----------------4--4--4--4--4----5--5--5--5--5--------0--0--0------------
--0----------------2--2--2--2--2----3--3--3--3--3---------------------------

  D#             A#        C#         D#            C#       A#    C#
          la chispa ad...
-5-5-5-5-5-5----1-1-1-1---3-3-3-3----5-5-5-5-5-5----3-3-3--1-1-1--3-3-3---
-6-6-6-6-6-6----1-1-1-1---3-3-3-3----6-6-6-6-5-6----3-3-3--1-1-1--3-3-3---
-7-7-7-7-7-7----3-3-3-3---5-5-5-5----7-7-7-7-7-7----5-5-5--3-3-3--5-5-5---
-7-7-7-7-7-7----3-3-3-3---5-5-5-5----7-7-7-7-7-7----5-5-5--3-3-3--5-5-5---
----------------1-1-1-1---3-3-3-3----7-7-7-7-7-7----3-3-3--3-3-3--3-3-3---
----------------------------------------------------------------------------

  D#              A#        C#        D#              C#     A#     C#
        la chispa ade...
-5-5-5-5-5-5----1-1-1-1---3-3-3-3----5-5-5--5-5-5----3-3-3--1-1-1--3-3-3---
-6-6-6-6-6-6----1-1-1-1---3-3-3-3----6-6-6--6-5-6----3-3-3--1-1-1--3-3-3---
-7-7-7-7-7-7----3-3-3-3---5-5-5-5----7-7-7--7-7-7----5-5-5--3-3-3--5-5-5---
-7-7-7-7-7-7----3-3-3-3---5-5-5-5----7-7-7--7-7-7----5-5-5--3-3-3--5-5-5---
----------------1-1-1-1---3-3-3-3----7-7-7--7-7-7----3-3-3--3-3-3--3-3-3---
----------------------------------------------------------------------------

         D#
   La chispa ad....
---------5-------------------------------------------------------------------------
---------6------10-------------------------------------------------------------------
---------7----------10-----9----------------------------------------------------------
---------7--------------0----10-------------------------------------------------------
---------5-------------------------------------------------------------------------
---------5-------------------------------------------------------------------------

Fuente original: LaCuerda
Colaborador original: salam [[email protected]]

Que te parecio? Calificalo con estrellas!!

Rating: 6.2/10 (144 votos)

Este fichero es trabajo propio de su transcriptor y representa su interpretación personal de la canción. El material contenido en esta página es para exclusivo uso privado, por lo que se prohibe su reproducción o retransmisión, así como su uso para fines comerciales.


Deja tus comentarios:

Letras de Heroes del silencio
Letras de canciones | Musica Independiente