Acordes y tablaturas para guitarra

Acordes y Tablaturas
Usuario: Password:

Buscar:
Acordes y Tablaturas >> Letra H >> Acordes de Hermetica >> Tu eres su seguridad
Tablatura de Tu eres su seguridad, Hermetica

Tu eres su seguridad

Hermetica






Intro:
1|--------------------------------------------------------------|
2|--------------------------------------------------------------|
3|--------------------------------------------------------------|x2
4|-9-9-9--12-10-12--9-9-9--12-10-9--9-9-9--12-7-12-5------------|
5|-7-7-7--10-9--10--7-7-7--10-5--7--7-7-7--10-9-10-3------5-----|
6|---------------------------------------------------3-2-3--3-2-|

1|---------------------------------|
2|---------------------------------|
3|---------------------------------|
4|---------------------------------|
5|-------2-----<3>-------2---------|
6|-3-2-3---3-2-----3-2-3---3-<2>---|

--bateria------

1|-----------------------------------------------------|
2|-----------------------------------------------------|
3|-----------------------------------------------------|x2
4|-----------------5--7--7--12--10-9--5--7-------------|
5|-------5------2--3--5--5--10--9--7--3--5-------5-----|
6|-3-2-3---3-2--0--------------------------3-2-3---3-2-|

Riff1:Ageno al tiempo,se que quisiera seguir
1|------------------------------------------|
2|------------------------------------------|
3|------------------------------------------|
4|----------5-5-5-5--7-7-7-7----------------|
5|-2-2-2-2--3-3-3-3--5-5-5-5--5-5-4-5-4--2--|
6|-0-0-0-0--------------------3-3-2-3-2--0--|
  pm.....................................

Riff2:pero mil voses te aogan...
1|---------------------------------------------|
2|---------------------------------------------|
3|---------------------------------------------|
4|----------5-5-5-5--7-7-7-7----10-8-7---------|
5|-2-2-2-2--3-3-3-3--5-5-5-5--2--------10-8-7--|
6|-0-0-0-0--------------------0----------------|
  pm...........................................

riff1
riff2

Riff3:Y en su falso amor....
1|----------------------------------------|
2|----------------------------------------|
3|----------------------------------------|
4|-2-2-2-2--4-4-4--5-5-5--7-7-7--7--5--4--|
5|-0-0-0-0--2-2-2--3-3-3--5-5-5--5--3--2--|
6|----------------------------------------|
  pm............................

Riff4:Antes de arrepentirse de su error
1|--------------------------------------------|
2|--------------------------------------------|
3|--------------------------------------------|
4|-4--------2-------5--------3-------7-7-7-7--|
5|-2--2-3-5--5-3-2--3--3-4-6--6-4-5--5-5-5-5--|
6|--------------------------------------------|
  pm...............................

Estribillo:mata..,y que...
1|----------------------|
2|----------------------|
3|----------------------|x2 y se repire 
4|-----5--7-------------|el riff4
5|--2--3--5--2----------|
6|--0--------0----------|

solo
  v^v^v^v^v^v^v...........................................................................  
 
  Antes del solo
E|--------------------------------------------:---------------------------------------------:
B|--------------------------------------------:---------------------------------------------:
G|--------------------------------------------:---------------------------------------------:
D|---------------9-------------------9-10-----:--12-10-9----10-9-------9--------------------:
A|-------9-10-12-----10-9-10-9------------12--:----------12------12-10---12-10-9-12-10-9----:
E|-10-12------------------------12------------:------------------------------------------12-:

  Subida #1
E|---------------------------------------------------------------------------------------------------------------|
B|--ENMUDECIENDO CON MANO DERECHA--------------------------------------------------------------------------------|
G|---------------------------------------------------------------------------------------------------------------|
D|------------------------------------------------------------9-9--9-9-------------------------------------------|
A|----------------9-9--9-9---10-10--10-10-------12-12--12-12-------------12-12--12-12---10-10--10-10---9-9--9-9--|
E|--12-12--12-12-------------------------------------------------------------------------------------------------|
   PM............................................................................................................

  Armonía con el bajo                      Riff Intro
E|---------------------------------------|--------------|
B|---------------------------------------|--------------|
G|---------------------------------------|--------------|
D|---------------------------------------|--------------|
A|--------9-10-------10-9---10----10-12--|-------5------|
E|--12----------10----------8-----8--10--|-0-2-3---3-2--|

                                               v^v^v^v^v^v..........................
SOLO
~~~~                                                 Yeite #2            Yeite#2 termina 
E|--------------:----------------------------(--------------------)-----------------:-----------------|
B|--------------:-7-8-10(12)-10p8h10----8-7--(-7-10-8-7---8-7-----)-10-8-7---8-7----:-----------------|
G|--9(11)-9p7h9-:----------------------------(----------9-----9-7-)--------9-----9-7:9(11)-9-7-9------|
D|--------------:----------------------------(--------------------)-----------------:-----------------|
A|--------------:----------------------------(--------------------)-----------------:-----------------|
E|--------------:----------------------------(--------------------)-----------------:-----------------|

                                        v^v^v^v^v^v...............................................                                        

     Yeite #3                           Bajada #1                                        c/                  
E|-(----------------------------------)--10-8-7-8-7------7-----------------------------------------|
B|-(-0h8p0h7p0h8p0h7p0h8p0h10p0h8p0h7-)-------------10-8---10-8-7-10-8-7---8-7---------------------|
G|-(----------------------------------)----------------------------------9-----9-7-9--9(11)-9-7-9--|
D|-(-----------X-2--------------------)------------------------------------------------------------|
A|-(----------------------------------)------------------------------------------------------------|
E|-(----------------------------------)------------------------------------------------------------|

                                            Subida Final
E|---------------------:------------------|------------------------------------------|
B|-/7----8-10--8-7-----:------------------|-----------------12-13---15(17)-15-17(19)-|
G|-----------------9-7-:-Repite Bajada #1-|--------11-12-14--------------------------|
D|---------------------:--c/--------------|-----14-----------------------------------|
A|---------------------:------------------|--15--------------------------------------|
E|---------------------:------------------|------------------------------------------|

<>=saturaciones

Nota:Espero que les ayude de mucho lo que saque
el solo no es tan jodido lo unico es que hay que
practicar mucho subanel equipo al mango mucha
distorcion y a tocar
consultas les paso mi otro e-mal [email protected]

Fuente original: LaCuerda
Colaborador original: Simon Nicolas Torres [[email protected]]

Que te parecio? Calificalo con estrellas!!

Rating: 7.5/10 (56 votos)

Este fichero es trabajo propio de su transcriptor y representa su interpretación personal de la canción. El material contenido en esta página es para exclusivo uso privado, por lo que se prohibe su reproducción o retransmisión, así como su uso para fines comerciales.


Deja tus comentarios:

Letras de Hermetica
Letras de canciones | Musica Independiente