Enviado por: Anonimo
Agrandar Letra
Reducir Letra
Imprimir


Otras Versiones de Tu eres su seguridad:




Hermetica, Tu eres su seguridad

Intro de guitarra

Intro:con La bata:
G|----------------------|
D|----------------------|
A|----------------------|
E|-----1-------1--------|

G|--------|------------------------------------------------------|
D|--------|------------------------------------------------------|
A|--10--3-|---------2-------3---------2-----------------5--------|
E|--------|--0-2-3-----3-2-----0-2-3-----3-2-----0-2-3-----3-2-0-|

Riff 1:
G|---------------------------------------------------------|X2|-----------------------------------------------------------|
D|---------------------------------------------------------|--|-----------------------------------------------------------|
A|-------5----------------3--5-5---------------------2-----|--|--------------------------------------10-9-10-9-7--7-7-7-7-|
E|-0-2-3---3-2-0-----0-0----------3-2-0--3-5---0-2-3---3-2-|--|--0-0-0-0-0--8-8-8-8-8--10-10-10-10------------------------|

G|---------------------------------------------------|
D|---------------------------------------------------|
A|--7-7-7-7---------------------------------7-7-7-7--|
E|-----------8-8-8-8-8--10-10-10-10-10-10------------|
Riff 2:
G|------------------------------------------------------------|-----------------------------------------|
D|------------------------------------------------------------|-----------------------------------------|
A|------------------------------------------------------------|-----------------------------------------|
E|--5--5-5-5-5--7--7-7-7-7--8--8-8-8-8--10--10-10-10--10-8-7--|-7--7-7-7-7--8--8-8-8-8--10--10-10-10-10-|
Riff 3:
G|-----------------------------------------------|---------------------------------|
D|-----------------------------------------------|---------------------------------|
A|-------2-----------------3------5-----7--7-7-7-|---------------------------------|
E|-0-2-3---3-2-0-----0-0-------------------------|---------------------------------|
Riff 1:X2
Ajeno al tiempo
se que quisieras seguir,
pero mil voces te ahogan
para que formes la cola del seguro porvenir.

Por eso te vi escapando 
en las horas sin sol.
De las miradas oscuras
Que aprobaron las torturas del fugador represor.

Riff 2:
Son quienes no alcanzan la paz
por sus viejos miedos.
Y hoy esperan de vos seguridad, si de vos.

Se repite todo

Que no te demore el mundo,
poniendote el antifaz.
Y buscando acomodarte en medio
de su decadencia.

Pues la enfermante histeria,
que hay a su alrededor.
Tratará de agotarte para que 
de su digestion.

y en su falso amor,
padecen de pasión,
Antes de arrepetirce de su error.



Riff 3:
Mata el miedo que guarda el animal,
limpia el cuerpo pues dentro de él estás.
si buscas libertad, 
ya no andes por fuera.
Hombre de mil nombres hace ya.


Riff 3:
Mata el miedo que guarda el animal,
limpia el cuerpo pues dentro de él estás.
si buscas libertad, 
Riff 2:
ya no andes por fuera.
Hombre de mil nombres hace ya.

Solo de guitarra

Riff 3:
Mata el miedo que guarda el animal,
limpia el cuerpo pues dentro de él estás.
si buscas libertad, 
ya no andes por fuera.
Hombre de mil nombres hace ya.

Riff 3:
Mata el miedo que guarda el animal,
limpia el cuerpo pues dentro de él estás.
si buscas libertad, 
ya no andes por fuera.
Hombre de mil nombres hace ya.

Fuente original: LaCuerda
Colaborador original: Alexis Tren Loco [[email protected]]
Aviso: Este fichero es trabajo propio de su transcriptor y representa su interpretación personal de la canción. El material contenido en esta página es para exclusivo uso privado, por lo que se prohibe su reproducción o retransmisión, así como su uso para fines comerciales.

Califica esta canción


Comentarios en Facebook