Enviado por: Anonimo
Agrandar Letra
Reducir Letra
Imprimir


Otras Versiones de Memoria de siglos:

Hermetica, Memoria de siglos

Introducción: se espera a la guitarra haga el intro y luego:
G -----9-11-12------9-12-11-----
D 9-9-----------9-9------------12-
A -----------------------------------
E -----------------------------------

G -----9-11-12------9-14-12-11-----
D 9-9-----------9-9----------------12-
A ---------------------------------------
E ---------------------------------------

Antes del canto:
G --------------------------------------
D --------------------------------------
A -----9-7-7------9-7-7------9-7-7-
E 7-7---------7-7--------7-7---------

Canto:
G ----------------------------------
D ----------------------------------
A ----------------------------------
E 7-7-7-7---7-7-7-7---7-9-7-7-

Estribillo:
G ----------------------------------------------
D ----------------------------------------------
A 3-3-3-3---5-5-5-5---5-8-7-5---3-3-3-3-
E ----------------------------------------------

Fuente original: LaCuerda
Colaborador original: Alexis Tren Loco [[email protected]]
Aviso: Este fichero es trabajo propio de su transcriptor y representa su interpretación personal de la canción. El material contenido en esta página es para exclusivo uso privado, por lo que se prohibe su reproducción o retransmisión, así como su uso para fines comerciales.

Califica esta canción


Comentarios en Facebook