Acordes y tablaturas para guitarra

Acordes y Tablaturas
Usuario: Password:

Buscar:
Acordes y Tablaturas >> Letra H >> Acordes de Hermetica >> Ayer deseo, hoy realidad
Tablatura de Ayer deseo, hoy realidad, Hermetica

Ayer deseo, hoy realidad

Hermetica






AYER DESEO HOY REALIDAD

E|----------------|---------------------------------------------------------|
B|----------------|---------------------------------------------------------|
G|----------------|-*-------------------------------------------------------|
D|---10-9-10------|-*---------------------10-9-10------8--8-10-11-6--10-9-5-|
A|----8-7--8-10-6-|--10--8-6-8--6-5-6-3----8-7--8-10-6-6--6--8--9-4---8-7-3-|
E|------------8-4-|---8--6-4-6--4-3-4-1------------8-4----------------------|
   INTRODUCCION

E|--------------------------------------------------------------------|
B|--------------------------------------------------------------------|
G|--------------------------------------------------------------------|
D|--------10-9-10-----------------------------------------------------|
A|--5-3----8-7--8-10-6-8---------------10---------------3-------------|
E|--3-1------------8-4-6-6-6-6-6-6-6-6--8-8-8-8-8-8-8-8-1-1-1-1-1-1-1-|
                       Se me cumple...

E|-------------------------------------------------------------------|
B|-------------------------------------------------------------------|
G|-------------------------------------------------------------------|
D|-------------------------------------------------------------------|
A|---3---------------8-8---8-8---10-10---10-10---3---------------3---|
E|-1-1-1-1-1-1-1-1-1-6-6-0-6-6-0--8--8-0--8--8-0-1-1-1-1-1-1-1-1-1-1-|
                     Y no será al pedo...

E|---------------------------------------------------------------------|
B|---------------------------------------------------------------------|
G|---------------------------------------------------------------------|
D|--------------------------------------------------------------6--5---|
A|-------3-3-3-6---------------6---------------3----------------4--3-6-|
E|-1-1-1-1-1-1-4-4-4-4-4-4-4-4-4-4-4-4-4-4-4-4-1-1-1-1-1-1-1-1-------4-|
               Salir de gira...

E|--------------------------------------------------------------------|
B|--------------------------------------------------------------------|
G|--------------------------------------------------------------------|
D|------------------6-5-3---------------------------------------------|
A|-3----------------4-3-1-6---------------6---------------3-----------|
E|-1-1-1-1-1-1-1-1--------4-4-4-4-4-4-4-4-4-4-4-4-4-4-4-4-1-1-1-1-1-1-|


E|------------------------------------------------------------------------|
B|------------------------------------------------------------------------|
G|-------------------------------------6--8--10--6------------------------|
D|-------6-5--------------------6-5-3--6--8--10--6--3---------------3-----|
A|-------4-3-6-3----------------4-3-1--4--6---8--4--1-1-1-1-1-1-1-1-1-1---|
E|-1-1-------4-1-1-1-1-1-1-1-1--------------------------------------------|
                                     Cuando ya lejos... Rutas andar...
                                                
E|----------------------------------------------|------------------------------|
B|----------------------------------------------|-6--------------8-------------|
G|--------------------------------------------*-|---6--------------8-----------|
D|-------------5---------------5-10-9-10------*-|-----6--------------8---------|
A|-1-1-1-1-1-1-3-3-3-3-3-3-3-3-3--8-7--8-10-6---|--------4--6--7-------4--6--8-|
E|----------------------------------------8-4---|------------------------------|
 |                                              | grt1  (solo)                 |
 |                                              |                              |
E|----------------------------------------------|------------------------------|
B|----------------------------------------------|------------------------------|
G|----------------------------------------------|-6---------------8------------|
D|-------------- base del solo -------->>-------|-6---------------8------------|
A|----------------------------------------------|-4---------------6------------|
E|----------------------------------------------|------------------------------|
                                                 grt2/bajo

E|---------------------|------------------------------------------------------|
B|--9--8----8----------|--6---------------8--------------9--8-9-11-9-8-9-8----|
G|-------10---10-8-10--|----6---------------8------------------------------10-|
D|---------------------|------6---------------8-------------------------------|
A|---------------------|---------4--6--7--------4--6--8-----------------------|
E|---------------------|------------------------------------------------------|
 |                     |                                                      |             
 |                     |                                                      |
E|---------------------|------------------------------------------------------|
B|---------------------|------------------------------------------------------|
G|-10--------------10--|--6---------------8-------------10-----------------10-|
D|-10--------------10--|--6---------------8-------------10-----------------10-|
A|--8---------------8--|--4---------------6--------------8------------------8-|
E|---------------------|------------------------------------------------------|


E|------------------------------------------------------------------|
B|---------4--------------4-----------9---8---------9---8---6-------|
G|----5--6-----------5--6---------------------------------------5---|
D|--6--------------6------------------------------------------------|
A|------------------------------------------------------------------|
E|------------------------------------------------------------------|
 |                                                                  |
 |                                                                  |
E|------------------------------------------------------------------|
B|------------------------------------------------------------------|
G|------------------------------------------------------------------|
D|------------------------------------------------------------------|
A|--6---------------6---------------3---------------3---------------|
E|--4-4-4-4-4-4-4-4-4-4-4-4-4-4-4-4-1-1-1-1-1-1-1-1-1-1-1-1-1-1-1-1-|


E|--------------------------------------------------------------------|
B|---------4---------------4--------11--9--8--9--11--9--8-9-8h9p8-----|
G|----5--6------------5--6---------------------------------------8-10-|
D|--6---------------6-------------------------------------------------|
A|--------------------------------------------------------------------|
E|--------------------------------------------------------------------|
 |                                                                    |
 |                                                                    |
E|--------------------------------------------------------------------|
B|--------------------------------------------------------------------|
G|--------------------------------------------------------------------|
D|--------------------------------------------------------------------|
A|--6---------------6---------------3---------------3-----------------|
E|--4-4-4-4-4-4-4-4-4-4-4-4-4-4-4-4-1-1-1-1-1-1-1-1-1-1-1-1-1-1-1-1---|


E|---------------------------------------------------------|
B|-------6------------8------6------8-----9------11--------|
G|--6------6-----8------8----8b10--10b12--11b13--13b15-----|
D|--6-6------6---8-8------8--------------------------------| 
A|--4------------6-----------------------------------------|
E|---------------------------------------------------------|
 |                                                         |
 |                                                         |
E|---------------------------------------------------------|
B|---------------------------------------------------------|
G|--6------------8-----------10-----------10---------------|
D|--6------------8-----------10-----------10---------------|
A|--4------------6------------8------------8---------------|                                
E|---------------------------------------------------------|
 

E|--------------------------------------------------------------------------|
B|--14-13-11-11-14-13-11-11-14-13-11-11-14-13-11-11-16-14-13-13-16-14-13-13-|
G|--------------------------------------------------------------------------|
D|--------------------------------------------------------------------------|
A|--------------------------------------------------------------------------|
E|--------------------------------------------------------------------------|
 |                                                                          |
 |                                                                          |
E|--------------------------------------------------------------------------|
B|--------------------------------------------------------------------------|
G|--6------------------------------------------------8----------------------|
D|--6------------------------------------------------8----------------------|
A|--4------------------------------------------------6----------------------|
E|--------------------------------------------------------------------------|


E|--------------------------------|---------------------------|
B|--16-14-13-13-16-14-13-13---9---|---------------------------|
G|--------------------------------|-----------(10)------------|
D|--------------------------------|---------------------------|
A|--------------------------------|---------------------------|
E|--------------------------------|---------------------------|
 |                                |                           |
 |                                |                           |
E|--------------------------------|---------------------------|
B|--------------------------------|---------------------------|
G|---------------------------10---|-----------10--------------|
D|---------------------------10---|-----------10--------------|
A|----------------------------8---|------------8--------------|
E|--------------------------------|---------------------------|


E|---------------------------------------------------------------------|
B|---------------------------------------------------------------------|
G|---------------------------------------------------------------------|
D|-10-9-10---------------------------10-9-10------8--8-10-11-6--10-9-5-|
A|--8-7--8-10-6-10--8-6-8--6-5-6-3----8-7--8-10-6-6--6--8--9-4---8-7-3-|
E|----------8-4--8--6-4-6--4-3-4-1------------8-4----------------------|
   

E|--------------------------------------------------------------------|
B|--------------------------------------------------------------------|
G|--------------------------------------------------------------------|
D|--------10-9-10-----------------------------------------------------|
A|--5-3----8-7--8-10-6-8---------------10---------------3-------------|
E|--3-1------------8-4-6-6-6-6-6-6-6-6--8-8-8-8-8-8-8-8-1-1-1-1-1-1-1-|
                       

E|-------------------------------------------------------------------|
B|-------------------------------------------------------------------|
G|-------------------------------------------------------------------|
D|-------------------------------------------------------------------|
A|---3---------------8-8---8-8---10-10---10-10---3---------------3---|
E|-1-1-1-1-1-1-1-1-1-6-6-0-6-6-0--8--8-0--8--8-0-1-1-1-1-1-1-1-1-1-1-|
                     

E|--------------------------------------------------------------------|
B|--------------------------------------------------------------------|
G|--------------------------------------------------------------------|
D|--------------------------------------------------------------6-5---|
A|-------3-3-3-6---------------6---------------3----------------4-3-6-|
E|-1-1-1-1-1-1-4-4-4-4-4-4-4-4-4-4-4-4-4-4-4-4-1-1-1-1-1-1-1-1------4-|
               

E|---------------------------------------------------------------------|
B|---------------------------------------------------------------------|
G|---------------------------------------------------------------------|
D|------------------6-5-3----------------------------------------------|
A|-3----------------4-3-1--6---------------6---------------3-----------|
E|-1-1-1-1-1-1-1-1---------4-4-4-4-4-4-4-4-4-4-4-4-4-4-4-4-1-1-1-1-1-1-|


E|----------------------------------------------------------------------|
B|----------------------------------------------------------------------|
G|-------------------------------------6--8--10--6----------------------|
D|------6-5--------------------6-5-3---6--8--10--6--3---------------3---|
A|------4-3-6-3----------------4-3-1---4--6---8--4--1-1-1-1-1-1-1-1-1-1-|
E|-1-1------4-1-1-1-1-1-1-1-1-------------------------------------------|


E|-------------------------------|---------------------------|
B|-------------------------------|---------------------------|
G|-------------------------------|---------------------------|
D|-------------5---------------5-|-10-9-10-------------------|
A|-1-1-1-1-1-1-3-3-3-3-3-3-3-3-3-|--8-7--8-10-6-4--10--6-5-3-|
E|-------------------------------|----------8-4-6---8--4-3-1-|

Fuente original: LaCuerda
Colaborador original: snack [[email protected]]

Que te parecio? Calificalo con estrellas!!

Rating: 5.3/10 (20 votos)

Este fichero es trabajo propio de su transcriptor y representa su interpretación personal de la canción. El material contenido en esta página es para exclusivo uso privado, por lo que se prohibe su reproducción o retransmisión, así como su uso para fines comerciales.


Deja tus comentarios:

Letras de Hermetica
Letras de canciones | Musica Independiente