Acordes y tablaturas para guitarra

Acordes y Tablaturas
Usuario: Password:

Buscar:
Acordes y Tablaturas >> Letra F >> Acordes de Flema >> El sueño americano
Tablatura de El sueño americano, Flema

El sueño americano

Flema






Intro:
----------------------------------------------------------
----------------------------------------------------------
-----------9--8-----------8--9----------9--8---------7--8-
-----------9--8-----------8--9----------9--8---------7--8-
-----------7--6-----------6--7----------7--6---------5--6-
--0--0-------------0--0---------0--0----------0--0--------
pm.....            ....         ....          ....

----------------------------------------------------------
----------------------------------------------------------
-----------9--8-----------8--9----------9--8---------6--7-
-----------9--8-----------8--9----------9--8---------6--7-
-----------7--6-----------6--7----------7--6---------4--5-
--0--0-------------0--0---------0--0----------0--0--------
pm.....            ....         ....          ....

Base de los solos
------------------------------------------------------
------------------------------------------------------
------------------------------------------------------     (x4)
--3--2---2-2-2-2-2-2---3-3-3-3-2-2-2-2----------------
--3--2---2-2-2-2-2-2---3-3-3-3-2-2-2-2----------------
--1--0---0-0-0-0-0-0---1-1-1-1-0-0-0-0----------------
         p.m..........................

Nacidos,               entre la violencia
-----------------------------------------------------
-----------------------------------------------------
-----------------------------------------------------     (x4)
--3-2---22222222222---3333333322222222---------------
--3-2---22222222222---3333333322222222---------------
--1-0---00000000000---1111111100000000---------------
  p.m.................................

Estrofa
En taros de alcohol...
-----------------------------------------------------
-----------------------------------------------------
-----------------------------------------------------
-5--5-8---8-7------------5--5-8-8-7------------------
-5--5-8---8-7------------5--5-8-8-7------------------
-3--3-6---6-5------------3--3-6—6-5------------------

Final
-----------------------------------------------------
-----------------------------------------------------
-----------------------------------------------------
-3--3----3--2---2--2-----7------------2--------------
-3--3----3--2---2--2-----7------------2--------------
-1--1----1--0---0--0-----5------------0--------------

Letra: 
Nacidos, entre la violencia
violencia, en mundo de dementes
suicidio, el sueño americano
Muerte, y autodestrucción

En tarros de alcohol, van mis sentimientos
y los chicos malos afilan sus navajas, para matar
o mutilar!

Miseria, apuestas por la vida
Turismo, un viaje a las cloacas
iglesia, el angel de la muerte
Mentiras, y odio racial

En tarros de alcohol, van mis sentimientos
y los chicos malos afilan sus navajas, para matar, 
o mutilar!

Fuente original: LaCuerda
Colaborador original: Luchosk8erboi [[email protected]]

Que te parecio? Calificalo con estrellas!!

Rating: 5.6/10 (25 votos)

Este fichero es trabajo propio de su transcriptor y representa su interpretación personal de la canción. El material contenido en esta página es para exclusivo uso privado, por lo que se prohibe su reproducción o retransmisión, así como su uso para fines comerciales.


Deja tus comentarios:

Letras de Flema
Letras de canciones | Musica Independiente