Enviado por: Anonimo
Agrandar Letra
Reducir Letra
Imprimir

Acordes:
½ tono
| +0 |
½ tono
||
Volver

Otras Versiones de Los restos de nuestro amor:




Fito paez, Los restos de nuestro amor

 INTRO:

 |------------|----------5----|--------5----|-----5---3--0-|---------2--|                -
 |-------7----|-----4------4--|-----3----3--|--------------|---------3--|               
 |-----7---7--|-------5-------|-------------|--------------|-----2------|
 |------------|---------------|-------------|--------------|--0---------|
 |--5---------|--3------------|--2----------|--1-----------|------------|
 |------------|---------------|-------------|--------------|------------|
      
 |-----------5---4-----|--------------0--|
 |-----5------------5--|-----3--2--3-----|
 |--------4------------|-----------------|
 |---------------------|-----------------|
 |---------------------|-0---------------|
 |--0------------------|-----------------|

 |-----------|-----------5----|--------5----|-----5--3--0--|--3-2-0-----|
 |-------7---|-----4-------4--|-----3-----3-|--------------|--------3-2-|
 |-----7---7-|-------5--------|-------------|--------------|------------|
 |-----------|----------------|-------------|--------------|------------|
 |--5--------|--3-------------|--2----------|--1-----------|------------|
 |-----------|----------------|-------------|--------------|--0---------|

D  G   A  D  Bm 
Yo pue-do be-ber
   A  D   Bm G
puedo des-ha-cer
   A       D         A4  A 
mi alma en un segundo 

D G   A    D   Bm  
Y pue-do escri-bir
    A  D   Bm G
muy le-jos de Mi 
   A  D             A4 A 
puedo darte el mundo 

G           A  D
Mientras te Re-ís
           A  G
y me haces su-frir
            A  Bm
loca es tan ab-surdo 

G           A  D 
Yo te di un lu-gar
         A   F#m
yo te di mis manos
                 A4  A 
y que estemos juntos 

Te podes pirar 
te podes mojar 
no podes callarte. 

Pero nena igual 
yo se que al final 
puedo imaginarte 

Vas a ser feliz 
vas a darme a mi 
algo de tu sangre 

Vamos a entender 
que acabó el ayer 
solo me dejaste 

[como intro]
Todas las figuras que se vuelven hacia mí 
son las sombras de un hechizo que pasó 

Todos los momentos en los que te hice feliz 
Son los restos de nuestro amor

FINAL:D G A D Bm - Bm A D Bm G - G A D
      C D G Bm A A4 A D D4 

Fuente original: LaCuerda
Colaborador original: Damian Villarreal [[email protected]]
Aviso: Este fichero es trabajo propio de su transcriptor y representa su interpretación personal de la canción. El material contenido en esta página es para exclusivo uso privado, por lo que se prohibe su reproducción o retransmisión, así como su uso para fines comerciales.

Califica esta canción


Comentarios en Facebook