Acordes y tablaturas para guitarra

Acordes y Tablaturas
Usuario: Password:

Buscar:
Acordes y Tablaturas >> Letra F >> Acordes de Fernando delgadillo >> Coincidir
Tablatura de Coincidir, Fernando delgadillo

Coincidir

Fernando delgadillo






hola a todos me llamo Hector (samhh) esta cancion se podria decir es mi favorita
me recuerda a alguien a kien yo amo y pues ojala algun dia ella lea esto y sinta chido
te amo niña cmvcdr. ojala las cosas hubieran sido diferentes...

ACORDES:

G    320003
D    000232
D7   000212
D/C# 040232
C    032010
C/B  020010
Am7  002010
A    002220
E    022100
F    133411
Bm7  113121

Acordes gráficos (1=Indice, 2=Medio, 3=Anular, 4=Meñique)

INTRO:
     G                                D
  ______/                         ______/
   ||||||                           ||||||
   |2||||                           |||1|2
   3|||||                           ||||34

E--3---------------3----------------------------------|
A-----------------------------------------------------|
D.----------------------------------0-----------------|
g.---0---0---0---0---0---0---0---0--------------------|
b--0---1---0---1---3-----------------------3-------3--|
e----------------------0---2---3----3---2-------------|

    C                           G
 ______/                     ______/
  ||||1|                       ||||||
  ||2|||                       |2||||
  |3||||                       3||||4

E-------------------------------3------------3-------|
A--3-----------3-------------------------------------|
D----------------------------------------------------|
g-----------0-----------------------------0-------0--|
b-----3--1--------1h0-1-2----------3---3-------------|
e--0----------------------0--3--3--------------------|


             D/F#
           ______/
            ||||||
            2||3||
            ||||4|

E-----------2-----------------------||
A-----------------------------------||
D-----------------------------0----.||se repite
g------2h0--2-------------2--------.||
b--1h0---------3---1---0------------||
e-----------------------------------||



SEGUNDA GUITARRA EN LA SEGUNDA VUELTA DE LA INTRO:

E-----------------------------------------------|
A-----------------------------------------------|
D-----------------------------------------------|
g--7---7----------------------------------------|
b----5---5--7--8------------------------8--8----|
e-----------------5--6--6--5-5----8-7-5---------|

E------------------------------------------------|
A------------------------------------------------|
D---------------------------------------------7--|
g--7-----------------------------7---------------|
b----5-7-8-----------------8-7-5---5----8-7-5----|
e----------5-7-8-10--7--7-------------5----------|



       G                         D
Soy vecino de este mundo por un rato
	C        C/B    Am7      D7    G [*]
Y hoy coincide que también tu estás aquí

[*]
E---------------------------|
A---------------------------|
D---------0-----------------|
g---------------------2-----|
b---------3---1---0---------|
e--3-2-0--------------------|


       G                          D
coincidencias tan extrañas de la vida
        C             C/B         Am7    D7          [G - D]
tantos siglos tantos mundos tanto espacio   y coincidir

    [G               -                D]
 ______/                          ______/
  ||||||                            ||||||
  |2||||                            |||1|2
  3|||||                            ||||34

E--3---------------3--------------------------------------|
A---------------------------------------------------------|
D-----------------------------------0---------------------|
g----0---0---0---0---0---0---0---0-----2----2----2-----2--|
b--0---1---0---1---3--------------------------------3-----|
e----------------------0---2---3----3----2----0-----------|


      G                       D
si navego con la mente los espacios
        C      C/B   Am7     D7   G [*]
O si quiero a mis ancestros retornar
     G                       D
agobiado me detengo y no imagino
        C             C/B           Am7   D7
tantos siglos tantos mundos tanto espacio    y coincidir

[INTRO]


          G                             D
si en la noche me entretengo en las estrellas
      C   C/B        Am7  D7         G [*]
Y capturo la que empieza     a florecer
       G                             D
la sostengo entre las manos más me alarma
        C             C/B           Am7   D7          [G - A - E]
tantos siglos tantos mundos tanto espacio    y coincidir


    [G       -       A       -       E]
 ______/         ______/        ______/
  ||||||           ||||||          |||1||
  |2||||           ||123|          |23|||
  3|||||           ||||||          ||||||

E--3------------------------------0----|
A------------------0-------------------|
D--------------------------------------|
g----0---0---0-------2---2---2----1----|
b--0---1---0---1---2---3---2---3--0----|
e---------------------------------0----|


       A                       E
si la vida se sostiene por instantes
         D       D/C#  Bm7  E       A  E
y un instante es el momento de existir
       A                            E
si tu vida es otro instante no comprendo
        D            D/C#           Bm7   E          F    A
tantos siglos tantos mundos tanto espacio   y coincidiiiiiir


nunka vivamos oslo por vivir para todo devemos tener un proposito por pequeño ke este sea
no hagamos lo ke nos akomoda hagamos lo ke nos gusta y lo ke realmente keremos:

         vive como si fueras a morir mañana y sueña como si fueras a vivir por siempre



  , ; ,    .--.   , ; ,
   |/  .         .  |//
    -;-/             -;-/
    // ;   ()     ()   ; 
   // ;  :.         .; ;__
  `-----.-.....-./-----
         ..-.-,_..
           (  (..-
             -         samhh.

Fuente original: LaCuerda
Colaborador original: hector [[email protected]]

Que te parecio? Calificalo con estrellas!!

Rating: 5.1/10 (39 votos)

Este fichero es trabajo propio de su transcriptor y representa su interpretación personal de la canción. El material contenido en esta página es para exclusivo uso privado, por lo que se prohibe su reproducción o retransmisión, así como su uso para fines comerciales.


Deja tus comentarios:

Letras de Fernando delgadillo
Letras de canciones | Musica Independiente