Acordes y tablaturas para guitarra

Acordes y Tablaturas
Usuario: Password:

Buscar:
Acordes y Tablaturas >> Letra F >> Acordes de Fernando delgadillo >> Buenas intenciones
Tablatura de Buenas intenciones, Fernando delgadillo

Buenas intenciones

Fernando delgadillo






toma diecisiete, buenas intenciones......

6|--------------------------------------3-------|
5|---------0-----------------------3------------|
4|-1-------------1---------------0--------------|
3|-----------------0-----------0----------------|
2|-----3-----3-------3-------3--------3----3----|
1|-----3-----3-----------3------------3----3----|

6|-----------------------3----------------------|
5|-3--------2-----------------------------------|
4|----------------------------------------------|
3|--------0-----------0-----0-------------0-----|
2|-------3-----------3--------3----------3------|
1|----3----------3----------------3--4----------|

6|-2-------------------------3------------------|
5|----------------------3-----------3--2---3----|
4|--------------------0-----------------------0-|
3|----0-------------0--------------------0---0-0|
2|-------3--------3--------3----3-----3---------|
1|------------4------------3----3---------------|


(aqui empieza el riff 1)
------------------------
6|----------------------------------------------|
5|----------------0---------------------0-------|
4|-2---------------------------2---------------0|
3|-------------------0------------0-----------0-|
2|----------------0-----0-----------0-------0---|
1|-2--4--2--0-------------0----2------2-5-------|

6|----------------3---------------------3-------|
5|-3-------------------------3------------------|
4|--------------------------------------------0-|
3|-------------------0----------0------------0--|
2|----------------0----0----------0---------0---|
1|-2--4--2--0------------0---2------2---5-------|

6|-4--------------4-----------------------------|
5|-------------------------1-----------1--------|
4|----------------------------------------------|
3|------------------0--------------------0------|
2|----------------0---0----------------0---0----|
1|-2--4--2--0-----------0--2--4--2--0--------0--|

6|----------------------------------|
5|----------------0-----------0-2-4-|
4|-2--------------------------------|
3|------------------0---------------|
2|----------------0---0---0---0-2-4-|
1|-2--4--2--0-----------0-----------|
                  ----------------------------------
                   (aqui termina el riff 1)

(repite riff 1)
Hoy que salga el sol, sera un buen dia 
para darle con el puño, en la nariz a la vida
que llevandose mis buenas intenciones
con ella me abandono.

6|----------------------------------------------|
5|----------------0---------------------0-------|
4|-2----------------------2-------------------0-|
3|------------------0-------0----------------0--|
2|----------------0---0-------0-------------0---|
1|-2--4--2--0-----------0-2-----2-------5-------|
  yo me  tengo a mi         y estoy completo no me

6|----------------3---------------------3-------|
5|-3----------------------3---------------------|
4|--------------------------------------------0-|
3|------------------0-------0----------------0--|
2|----------------0---0-------0-------------0---|
1|-2--4--2--0-----------0-2-----2-------5-------|
  falta la nariz            ni la imaginacion y

6|-4--------------4-----------------------------|
5|------------------------1------------1--------|
4|----------------------------------------------|
3|------------------0--------------------0------|
2|----------------0---0----------------0---0----|
1|-2--4--2--0-----------0-2--4--2--0---------0--|
  puedo hacer feliz      a mas de una exigente peti-

6|----------------------------------------------|
5|-----------2----------------------------------|
4|-2--------------------1---------------------0-|
3|---0---------0----------3------------------3--|
2|-----3---------3-----------3-------------3----|
1|-------3---------3---------------0------------|
  cion a casi cualquier exigente peticion.

6|-3-------------2------------------------------|
5|----------------------------------------------|
4|-----------------------------0--2-------------|
3|---0---------0----0--------0------0-----------|
2|-----3-----3---------3---3----------3---------|
1|-------3-4-------------4--------------3-------|
  no puedo sentarme a que venga y me diga lo siento

6|----------------------|
5|--------3-------2-----|
4|-0--------------------|
3|---0------0-------0---|
2|-----3------3-------3-|
1|------3------3-------3|
    oh no

6|-3------------2-------------------------------|
5|------------------------------------------2---|
4|--------------------------------0--2----------|
3|---0--------0---0-------------0---------------|
2|-----3----3--------3--------3----------3----3-|
1|------3--4--------------4--------------3----3-|
  cualquier cosa puede ocurrirnos a ella o a mi

6|-------------|
5|-------------|
4|-2-----------|
3|---3--------3|
2|-----3----3--|
1|--------0----|

6|-3---------------------2----------------------|
5|----------------------------------------------|
4|----------------------------------0--2--------|
3|---0----------------0----0-------0-----0------|
2|-----3-----------3---------3---3---------3----|
1|---------3--4----------------4-------------3--|
  y asi sin complejos de paso pondria su recuerdo

6|------------------------------|
5|-----------3--------2---------|
4|-0----------------------------|
3|---0---------0--------0-------|
2|-----3---------3--------3-----|
1|-------3---------3--------3---|

6|-3-----------------2-------------------3-----------|
5|-----------------------------------3--------3------|
4|---------------------------------0-----------------|
3|---0-------------0---0---------0-------------------|
2|------3--------3--------3----3-------3---3-----3---|
1|---------3--4--------------4---------3---3-----3---|
 en el cesto de la basura que esta en el jardin

6|--------------|
5|-2--3---------|
4|---------0----|
3|---0--0----0--|
2|--------------|
1|--------------|

(se repite el riff 1)
ella lo inicio,deliberadamente
y no se le ocurrio, ni se me 
habia ocurrido a mi que entre ella 
y yo, cabe una chica o dos,
yo diria mas bien dos.

6|-------------------------------------------------|
5|---------------0---------------------0-----------|
4|-2-----------------------2---------------------0-|
3|-----------------0----------0----------------0---|
2|---------------0---0----------0------------0-----|
1|-2--4--2--0----------0---2------2----5-----------|
  vamonos a ver             si la experiencia puede ha-

6|---------------3---------------------3-----------|
5|-3----------------------3------------------------|
4|-----------------------------------------------0-|
3|-----------------0--------0------------------0---|
2|---------------0---0---------0-------------0-----|
1|-2--4--2--0----------0--2-------0----5-----------|
 blar mas que cualquier    libro de ciencia que co-

6|-4-------------4---------------------------------|
5|------------------------1------------1-----------|
4|-------------------------------------------2-----|
3|-----------------0---------------------0-----0---|
2|---------------0---0-----------------0---0-----3-|
1|-2--4--2--0----------0--2--4--2--0--------0-----0|
 mente fantasticamente todo lo que se sabe de amor

6|------------------------------------------3------|
5|-2-----------------------------3-----------------|
4|---------2----------0----------------------------|
3|---0-------0----------0-----------0---------0----|
2|-----3-------3----------3-----------3---------3--|
1|-------3-------3----------3-----------3--------3-|
 oh, si! claro que puede que ella no regrese nunca a mi

6|--------------------3--------------2-------------|
5|-3-------2---------------------------------------|
4|-----------------------------------------------0-|
3|---0-------0----------0----------0----0-------0--|
2|-----3-------3-----------3------3-------3----3---|
1|-------3-------3-----------3--4-----------4------|
y que me siente por ahi a recordar que me rei cuando ella se fue y yo me

6|-------------------------------------------------|
5|---------2-----------------------------3---------|
4|-2----------------2----------0-------------------|
3|---0-------0--------0----------0----------0------|
2|-----3-------3--------3----------3----------3----|
1|------3-------3--------3----------3----------3---|
fui, si que puede ser, pero que vamos a hacerle

6|-3---------------------3---------------3---------|
5|--------3-------2--------------------------------|
4|------------------------------------------------0|
3|--0-------0-------0------0-----------0---0-----0-|
2|----3-------3-------3------3-------3-------3--3--|
1|------3-------3-------3------3--4------------4---|
si ya no tiene mas remedio le colgamos otra en medio y en vez de dos chicas

6|----------3----------------------|
5|-3-----------------3------2------|
4|---------------------------------|
3|---0--------0--------0------0----|
2|-----3--------3--------3------3--|
1|-------3--------3--------3------3|
 tres tal vez        asi se activan mis re-

6|-3--------------2--------------------------------|
5|-----------------------------------------0-------|
4|----------------------------0-2------------------|
3|---0----------0---0-------0------0----------0----|
2|------3-----3-------3----3---------3----------3--|
1|--------3-4-----------4--------------3---------3-|
flejos y si no me llego a viejo no me muero de vejez no crees?

6|--------------------------3----------------------|
5|----------------3--------------3---------2-------|
4|-2-------0---------------------------------------|
3|---0-------0------0--------0-----0----------0----|
2|-----3-------3------3-------3------3----------3--|
1|-------3-------3------3------3-------3----------3|
  perfectamente puedo ir a ver al doctor que le recete vita-


6|-4-------------4---------------------------------|
5|------------------------1------------1-----------|
4|-------------------------------------------2-----|
3|-----------------0---------------------0-----0---|
2|---------------0---0-----------------0---0-----3-|
1|-2--4--2--0----------0--2--4--2--0--------0-----3|
 minas a mi amor         y a mi satisfactor deme doc-

6|-------------------------------------------------|
5|-0---------------0-----------------0-------------|
4|--------2----------------2-----------------------|
3|---0------0--------0--------0--------0-----------|
2|-----3------3--------3--------3--------3---------|
1|-------3------3--------3--------3--------3-------|
 tor que sean pastillas porfavor.

6|-----------------------3-------------------------|
5|----------------3-----------------3--------------|
4|-2------0----------------------------------------|
3|---0------0-------0-------0----------0-----------|
2|-----3------3-------3-------3----------3---------|
1|-------3------3-------3-------3----------3-------|

6|-4-------------4----------------------------|
5|------------------------1------------1------|
4|--------------------------------------------|
3|-----------------0---------------------0----|
2|---------------0---0-----------------0---0--|
1|-2--4--2--0----------0--2--4--2--0--------0-|

6|----------------------------------|
5|----------------0-----------0-2-4-|
4|-2--------------------------------|
3|------------------0---------------|
2|----------------0---0---0---0-2-4-|
1|-2--4--2--0-----------0-----------|

6|----------------------------------------------|
5|----------------0---------------------0-------|
4|-2----------------------2-------------------0-|
3|------------------0-------0----------------0--|
2|----------------0---0-------0-------------0---|
1|-2--4--2--0-----------0-2-----2-------5-------|
  se ha metido el sol      no fue un mal dia pero pa-

6|----------------3---------------------3--|
5|-3----------------------3----------------|
4|-----------------------------------------|
3|------------------0-------0--------------|
2|----------------0---0-------0------------|
1|-2--4--2--0-----------0-2-----2-------5--|
  so algo que cambio   los planes de mi vida

6|-4----------4-----------4----------------|
5|--------------------------------------7--|
4|---------0-----------0-------------------|
3|-------0-----------0---------------------|
2|-----4-----------4------4--3-------------|
1|--------------------------------------0--|
cuando le llame en la tarde por telefono y ella me perdono.

6|----------------------------------------------0--0-|
5|----------------------------------------------0--0-|
4|--------------------------------------7--5--7-2--0-|
3|-------------------------7--5--7--5-----------0--2-|
2|--------------7--5--7--5----------------------2--3-|
1|--7--5--7--5----------------------------------0--2-|

                                                FIN

y eso es todo.
datos:
terminado el 12 de agosto del 2001
Horas empleadas: 35 aproximadamente
veces de oir la cancion: 50 o 60.

aun tiene errores, pero los que sepan 
de esto sabran que esta mucho muy dificil 
la rola, y les juro
que me costo mas trabajo de lo
 que se imaginan.
aun asi, los que la saquen veran 
que suena muy bonito.
espero les sirva.

Notas:
no se guien mucho por la posicion
 de la letra en los acordes, ya que
 no cupieron muy bien.
Esta es mi tercera transcripcion,
 ahi juzguenla.
Cualquier comentario, correccion, 
sugerencia, rayada de madre, felicitacion, 
virus, e-mail bomba, o solo pa cotorrear,
 mi mail es [email protected]

y ya para dejarlos en paz, quiero
 dedicarle estas horas y horas de 
cansancio, a mi amorcito,
 mi karlita salazar, que les juro,
 oh hermanos mios, que pasan los
 dias y cada vez la amo mas, bombon, 
te amito....

paz.

Fuente original: LaCuerda
Colaborador original: ivan tavera [[email protected]]

Que te parecio? Calificalo con estrellas!!

Rating: 2.4/10 (13 votos)

Este fichero es trabajo propio de su transcriptor y representa su interpretación personal de la canción. El material contenido en esta página es para exclusivo uso privado, por lo que se prohibe su reproducción o retransmisión, así como su uso para fines comerciales.


Deja tus comentarios:

Letras de Fernando delgadillo
Letras de canciones | Musica Independiente