Enviado por: Anonimo
Agrandar Letra
Reducir Letra
Imprimir


Otras Versiones de El satanico dr. cadillac:




Los fabulosos cadillacs, El satanico dr. cadillac

"El Satanico Dr.Cadillac"
=-=-=-=-=-=-=-=-=-=-=-=-=

               Cm 
E------------|--------------------------|--------------------------|
B-3--4--3--4-|---3--4--3-----3--4--3--4-|---3--4--3-----3--4--4--3-|
G------------|-5----------5-------------|-5----------5-------------|
D------------|--------------------------|--------------------------|
A------------|--------------------------|--------------------------|
E------------|--------------------------|--------------------------|

Gm
-------------------------|-------------------------|
---1--3--1----1--3--1--3-|---1--3--1----1--3--3--1-|
-3----------3------------|-3----------3------------|
-------------------------|-------------------------|
-------------------------|-------------------------|
-------------------------|-------------------------|

D                     Gm
---------------------|-------2-2-2-2-2-3-2-3--|
-------1-----1-----1-|-1--3-------------------|
-2--3-----3-----3----|------------------------|
---------------------|------------------------|
---------------------|------------------------|
---------------------|------------------------|

               Cm
Voy a tomar por vos, otro trago para olvidar

                        Gm
que el miedo te comio los pies

                        D
y que ahora sos un tipo mas, y que poco a poco te fuiste yendo

                                            Gm
y que poco a poco te fuiste yendo de nuestro lugar

Cm
Te sienta bien el sol, te sienta bien ser cool,

             Gm
te sienta bien el mal, te sienta bien ser Dios,

               D
te sienta bien mentir y decir

                           Gm       Bb
que te fuiste yendo de nuestro lugar

Eb
Que es lo que ha pasado con tu corazon, ya no marca el paso que marcaba ayer

Bb
nunca fuiste libre y esa es la razon, siempre hay un idiota para convencer

Cm
hablas toda la noche como un boy scout, hablas sobre mi vida como tu papa

D
Los Cadillacs tocando para vos

Fuente original: LaCuerda
Colaborador original: ]
Aviso: Este fichero es trabajo propio de su transcriptor y representa su interpretación personal de la canción. El material contenido en esta página es para exclusivo uso privado, por lo que se prohibe su reproducción o retransmisión, así como su uso para fines comerciales.

Califica esta canción


Comentarios en Facebook