Enviado por: Anonimo
Agrandar Letra
Reducir Letra
Imprimir


Otras Versiones de El leon:

Los fabulosos cadillacs, El leon

MANuel Santillan, EL leon

Hay que tomar en cuenta unas cuantas variaciones que hace en la cancion.

INTRO

G|----------------|----------------|----------------|----------------|
D|----------------|----------------|----------------|----------------|
A|----------------|----------------|--3-3-------3---|--6-6--------6--|
E|-3-3---------3--|-6-6--------6---|----------------|----------------|

VERSO
(Si tienes un bajo de 5 cuerdas toca Fa en 6B)
G|----------------|----------------|----------------|----------------|
D|----------------|----------------|----------------|----------------|
A|----------------|----------------|--1----------3--|--1---------3---|
E|--1--------3----|--1----------3--|----------------|----------------|

G|-7--------------|----------------|----------------|En algunas ----------------|
D|-----7--------7-|----------------|--3---4---5-----|Ocaciones  -5----5---------|
A|----------5-----|---5----5---5-5-|----------------|Varia      -----------5----|
E|----------------|-3--------------|----------------|           ----------------|

2da Parte

G|----------------|----------------|----------------|----------------|
D|----------------|----------------|----------------|----------------|    X2
A|--6--6---6---6--|----------------|----1--0--------|-----------1----|
E|----------------|-1---1---1---1--|-3---------3----|--1----3-------3|

Fuente original: LaCuerda
Colaborador original: Guillermo Leal Rosillo [[email protected]]
Aviso: Este fichero es trabajo propio de su transcriptor y representa su interpretación personal de la canción. El material contenido en esta página es para exclusivo uso privado, por lo que se prohibe su reproducción o retransmisión, así como su uso para fines comerciales.

Califica esta canción


Comentarios en Facebook