Acordes y tablaturas para guitarra

Acordes y Tablaturas
Usuario: Password:

Buscar:
Acordes y Tablaturas >> Letra E >> Acordes de Enrique bunbury >> El jinete
Tablatura de El jinete, Enrique bunbury

El jinete

Enrique bunbury






Ok, el por que la mando de nuevo, es por que la anterior tenia errores, una disculpa
la estructura de la rola es de tres acordes

   Em    Am     B7     Em2      Em3     Em4    Em5    Am2

 6----0  6---x  6xxxx  6----0   6---0   6---0  6---0  6---x
 5----2  5---0  5---2  5----2   5---2   5---2  5---2  5---0
 4----2  4---2  4---1  4----0   4---0   4---4  4---3  4---2
 3----0  3---2  3---2  3----0   3---0   3---0  3---0  3---4
 2----0  2---1  2---0  2----1   2---3   2---0  2---3  2---1
 1----0  1---0  1---2  1----3   1---0   1---0  1---0  1---0

Comienza con un pequeño intro en armonicos

6------0-0-0---------------------------------------
5--------------------------------------------------
4--------------------------------------------------
3--------------------------------------------8-----
2------------------0-(12)-1-(13)--(x3)-----7-------
1------------0-(12)----------------------7-----0---

   (Comienza la rola)
Em
Por la lejana montaña
                 Am
Va cabalgando un jinete
                 Em
Vaga solito en el mundo
     B7          Em
Y va deseando la muerte

Em
Lleva en su pecho una herida
                    Am
Va con su alma destrozada
                   Em
Quisiera perder la vida
      B7
Y reunirse con su amada

Am                     Em
La queria mas que a su vida
Am               Em
Y la perdio para siempre
    Am            Em
Por eso lleva una herida
    B7             Em
Por eso...busca la muerte.

Em
Por eso se pierde en la noche
                     Am
Y aunque la noche es muy bella
                   Em
El va pidiéndole a dios
            B7
Que se lo lleve con ella

Am                     Em
La queria mas que a su vida
Am               Em
Y la perdio para siempre
    Am            Em
Por eso lleva una herida
       B7       Em
Por eso...busca la muerte, busca la muerte

(aquí hacen un intermedio, improvisen una vuelta con la escala de mi menor
y terminan haciendo el sonido muy despacito y quedo, la pausan, jueguen)
Em, Em5, Em4, Em3, Em2, Em.

(Y aquí como no hay acordes yo juego asi)

Em4                Em5
En su guitarra cantando
Em4      Em5     Am2
Se pasa noches enteras
Am2         Em4       Em5
Hombre y guitarra  llorando
        B7
A la luz de las estrellas

Em4                     Em5
Despues se pierde en la noche
 Em4           Em5        Am2
Y aunque la noche es muy bella
 Am                Em4  Em5
El va pidiendole a dios
            B7
Que se lo lleve con ella

    (Aquí entran fuerte)

Am                     Em
La queria mas que a su vida
Am                     Em
Y la perdio para siempre
    Am            Em
Por eso lleva una herida
       B7       Em
Por eso...
(Aquí viene el solo)

Em                                                     Am                          Em           B7
6xxxxxxxxxxxxxxxxxxxxxxxxxxxxxxxxxxxxxxxxxxxxxxxxxxxxxxxxxxxxxxxxxxxxxxxxxxxxxx
5------------------------5-------------------------5----------------------------------------------------------------
4-------4-/-5--5-5--4----4--5---4-/-5--5-5--4-------------------------------------------------------------------
3-------------------------------------------------------5-/-4--5-4-5--5-5-4---------------------------------------
2----------------------------------------------------------------------------------5--4--5--/---7—8—7—5—4--5
1--------------------------------------------------------------------------------------------------------------------

Em                                                                      Am                            Em               B7
6xxxxxxxxxxxxxxxxxxxxxxxxxxxxxxxxxxxxxxxxxxxxxxxxxxxxxxxxxxxxxxxxxxxxxxxxxxxxxxxxxxxxxxxxxxxxxxxxxxxxxxxxxxxxxxxxxxxxxxxxxxxxxxxxxxxxxxx
5------------------------5-------------------------5------------------------------------------------------------------------------------
4-------4-/-5--5-5--4----4--5---4-/-5--5-5--4-------------------------------------------------------------------------------------------
3-------------------------------------------------------5-/-4--5-4-5--5-5-4-------------------------------------------------------------
2----------------------------------------------------------------------------------5--4--5--4-/-5-/—4-4-4-4-4-4-4----------8---8--------
1---------------------------------------------------------------------------------------------------------------------------7—5---------

Este es el riff del bajo en concierto lo adapte en la guitarra
es mas fácil de lo que se ve

6-0--0--0--0--0---0----0-----------------------3--3--3--3--3--3--3--3--2--2-
5-0--2--0--2--3-/-5----2-/-3-/-2-/-0--2--(x2)-------------------------------

6--0--0--0--0--0--3--2--0--
5--0--2--0--2--3-----------

este es el piano que sale al final
2-------7/8--5-----------------------------------------
1---5/7------------------------------------------------
(se repite apagandose hasta que quieras)

Un saludo a todos de corazón
Un abrazo y un beso infinitos

Por favor si transcriben no sean huevones y pongan todos
los acordes donde y como los lleva, cualquier cosita hechenme un mail y
que alguien me pase la cancion nueva de los chulis

Fuente original: LaCuerda
Colaborador original: Ulises [[email protected]]

Que te parecio? Calificalo con estrellas!!

Rating: 7.4/10 (74 votos)

Este fichero es trabajo propio de su transcriptor y representa su interpretación personal de la canción. El material contenido en esta página es para exclusivo uso privado, por lo que se prohibe su reproducción o retransmisión, así como su uso para fines comerciales.


Deja tus comentarios:

Letras de Enrique bunbury
Letras de canciones | Musica Independiente