Enviado por:
Anonimo

Enanitos Verdes, Sweet Summer

Imprimir
No se vallan a confundir, estos son los rifs y el solo
de la rola, la transcripcion en acordes esta bien hecha
solo que hay un acorde un poco mal de todas formas
estoy completamente bien en el solo en en varios
riffs cualquier duda o queja a mi correo please


Sweet Summer
Intro:
(Es Un Poco Rapido)
E-----------------------------------------------------
A-----------------------------------------------------
D---------------------------------------11------9-----
G--3/4-4-4------------------------------9--9-9--7--7-7
B-----------5/3-3h5-----------------------------------
e-------------------5/3-3h5----7/5-5h7----------------

Acordes:
MiM,LaM,Sim7,Si.
Coros:
Do#m,Lam,Solm y ReM


Me llevaraaaaaa  (min)(00:34)
Riff 1


( B----8/9--9v-9h11 )

Riff 3
( este riff es la terminacion del intro
  con un retoquito al ultimo )

D--11------9-----
G--9--9-9--7--7-7--5V




Sera Mejor Si te vaaaasss (min) (01:32)
Riff 2

B--------------9/7-slide-5---5/3-slide-1-
e-11/9-slide-7---------------------------


Ahhhh ahhh ahhhh
ahhhh ahhhh ahhh

Intro

Hay un miles de colores ( Riff 1 )

Solo (min)(2:51)

E----------------------------------
A-------5-4-2---5-4----------------
D---5v--------------5v--5-5-5/7-5--
G----------------------------------
B----------------------------------
e----------------------------------

E----------------------------------
A-------5-4-2---5-4v---------------
D---5v-----------------5-5-5/7-5---
G----------------------------------
B----------------------------------
e----------------------------------

Por que soy marinero y capitan
Riff 4

D-------7v-5h7-5h7-
G--5/6v------------

esta rola se la dedico al team peña
y al maricon de mi hermano Carlos
toño
Tkm cynthia

Fuente original: LaCuerda
Colaborador original: Pollito [elpollo89@hotmail.com]
Aviso: Este fichero es trabajo propio de su transcriptor y representa su interpretación personal de la canción. El material contenido en esta página es para exclusivo uso privado, por lo que se prohibe su reproducción o retransmisión, así como su uso para fines comerciales.

Califica esta canción


Comentarios en Facebook