Acordes y tablaturas para guitarra

Acordes y Tablaturas
Usuario: Password:

Buscar:
Acordes y Tablaturas >> Letra E >> Acordes de Enanitos verdes >> Por el resto
Tablatura de Por el resto, Enanitos verdes

Por el resto

Enanitos verdes






Intro:

e:---0-----0------0-----0-------I---5--5--------------------I
B:---0-------0----0-------0-----I---6----6-----------5------I
G:---5---------5--5---------5---I---7------7-------5---5----I
D:---5--5---------5--5----------I---7------------7-------7--I
A:---0------------0-------------I---5----------8------------I
E:------------------------------I---------------------------I


e:---0-----0------0-----0-------I---5--5-------------5-5-5--I
B:---0-------0----0-------0-----I---6----6-----------6-6-6--I
G:---5---------5--5---------5---I---7------7-------5-5-5-5--I
D:---5--5---------5--5----------I---7------------7----------I
A:---0------------0-------------I---5----------8------------I
E:------------------------------I---------------------------I


e:---0-----0------0-----0-------I---5--5-------------5-5-5--I
B:---0-------0----0-------0-----I---6----6-----------6-6-6--I
G:---5---------5--5---------5---I---7------7-------5-5-5-5--I   x 6
D:---5--5---------5--5----------I---7------------7----------I
A:---0------------0-------------I---5----------8------------I
E:------------------------------I---------------------------I




      Am7                            F
Nunca necesitaste a nadie para vivir,

       Dm                                        Am7
ni siquiera te fijaste que había en tu alrededor.

       Am7                                       F
Desesperado mirabas las paredes de tu habitación,

     Dm                                   E
y gritaste muy fuerte pero nadie te conoció



Coro:

          F                 Dm            G
Ahora tendrás que seguir cargando tu cruz

        Am7                       F
Por el resto de tus días, por el resto de tus días

        Am7                       F             G
por el resto de tus días, por el resto de tus días.

e:---0-----0------0-----0-------I---5--5-------------5-5-5--I
B:---0-------0----0-------0-----I---6----6-----------6-6-6--I
G:---5---------5--5---------5---I---7------7-------5-5-5-5--I   x 2
D:---5--5---------5--5----------I---7------------7----------I
A:---0------------0-------------I---5----------8------------I
E:------------------------------I---------------------------I




   Am7                                      F
Creías que la balanza siempre estaba a tu favor,

       Dm                                  Am7
y lo mejor de todo era que solo lo creías vos,

        Am7                         F
solo si diste algo, algo podrás recibir y

    Dm                              E
el amor que esperas solo depende de ti, sólo de ti.


Coro:
          F                 Dm            G
Ahora tendrás que seguir cargando tu cruz

        Am7                       F
Por el resto de tus días, por el resto de tus días

        Am7                       F             G
por el resto de tus días, por el resto de tus días.




Solo:

  Am7                                             F         Dm
e:-----5-----7-----8------10-------12---10--8--7--7/8------------------I
B:---------------------------------------------------------------------I
G:-3/5---5/7---7/9---9/10----10/12------10--9--7--7/9----5-5/7~~-------I
D:---------------------------------------------------------------5-----I
A:---------------------------------------------------------------------I
E:---------------------------------------------------------------------I

                    Am7
e:----------------------5-----7-----8------10-------12-----13--13------I
B:---------------------------------------------------------13--13------I
G:------------------3/5---5/7---7/9---9/10----10/12--------------------I
D:--5------------------------------------------------------------------I
A:----75-3--0---------------------------------------------------------I
E:---------------------------------------------------------------------I

    F                       Dm             Am7
e:--15--13--12--12--13--12--12-----------------------------------------I
B:--13--13--13--13--13--13--13----------13-12--------------------------I
G:-----------------------------------12-------12-----------------------I
D:-------------------------------/10-------------12-10-9-10-10/12------I
A:----------------------------------------------------------------10~~-I
E:---------------------------------------------------------------------I

              F                               Dm
e:----------------5-7-8--8/10--8-7----8p7----7--------8----------------I
B:----------5-6-8------------------10-----10---8~~-------5-6-5-6-5-----I
G:------5-7------------------------------------------------------------I
D:--5/7----------------------------------------------------------------I
A:---------------------------------------------------------------------I
E:---------------------------------------------------------------------I

    Am7                                                    F
e:--------------------------------12----10--------------10-12----10----I
B:--6/10--8-10-10/12--12/13-12-10----13----12--------10-------13-------I
G:---------------------------------------------10/12-------------------I
D:---------------------------------------------------------------------I
A:---------------------------------------------------------------------I
E:---------------------------------------------------------------------I

                   Dm                F
e:----------------------------------------------------5--7/8-7-5p7-----I
B:--10-12-13-12-10--------------------------------5-8--------------8---I
G:-----------------12-12--9-9--7-5-7-7/9--------5----------------------I
D:------------------------------------------5/7------------------------I
A:---------------------------------------------------------------------I
E:---------------------------------------------------------------------I
                                 (Y ahora tendrás que sufrir...)

       Dm                   G
e:-----------------------------------I
B:----------------------8-8---8-8----I
G:--------------5-7-7/9-----9-----9--I
D:-----------------------------------I
A:-----------------------------------I
E:-----------------------------------I
   (... cargando tu cruz)




        Am7                       F
Por el resto de tus días, por el resto de tus días

        Am7                       F             G
por el resto de tus días, por el resto de tus días.


Am7, Dm, F  x  4

Am7, Dm, F  x  4

Am7, Dm, F, Am7




Cd. Juárez
Abril 2005

Fuente original: LaCuerda
Colaborador original: Rubén Pérez [[email protected]]

Que te parecio? Calificalo con estrellas!!

Rating: 5.5/10 (24 votos)

Este fichero es trabajo propio de su transcriptor y representa su interpretación personal de la canción. El material contenido en esta página es para exclusivo uso privado, por lo que se prohibe su reproducción o retransmisión, así como su uso para fines comerciales.


Deja tus comentarios:

Letras de Enanitos verdes
Letras de canciones | Musica Independiente