Enviado por:
Anonimo

Enanitos Verdes, No Me Veras

Imprimir
TANTO TIEMPO PIDIENDO AQUI LA TIENEN USEN DISTORTION CON EFECCT AGUA Y SALE MUY BIE. GRACIAS.

Guitarra1
|----------------------------------------------------------------------
|----------------------------------------------------------------------
|----------------------------------------------------------------------
|---------5--7-----------5--7-----------5--7-----------5--8-----5------
|---7-/7-----------7-/7-----------7-/7-----------7-/7-----8-----5------
|---0--0--------0--0--0--------0--0--0--------0--0--0-----6--0--3--0---
|	      p.m.           p.m.           p.m.            p.m.  sim. 
|
guitarra 2
|----------------------------------------------------------------------
|----------------------------------------------------------------------
|----------------------------------------------------------------------
|------------------------------2--------------------------9--8--7------
|------------------------------2--------------------------9--8--7------
|------------------------------0--------------------------7--6--5--0---


Guitar I
Riff A
|----------------------------------------------------------------------
|----------------------------------------------------------------------
|----------------------------------------------------------------------
|---------5--7-----------5--7-----------5--7-----------5--8-----5------
|---7-/7-----------7-/7-----------7-/7-----------7-/7-----8-----5------
|---0--0--------0--0--0--------0--0--0--------0--0--0-----6--0--3--0---
|
|Guitar II
|----------------------------------------------------------------------
|----------------------------------------------------------------------
|----------------------------------------------------------------------
|---------5--7-----------5--7-----------5--7-----------5--9--8--7------
|---7-/7-----------7-/7-----------7-/7-----------7-/7-----9--8--7------
|---0--0--------0--0--0--------0--0--0--------0--0--0-----7--6--5--0---


Guitar I
Viene la parte buena
Riff B
|---------------------------------------------------------------------------
------------------
|---------------------------------------------------------------------------
------------------
|---------------------------------------------------------------------------
------------------
|---2---5-----7--8--5--8--2---5------7--8--5--8--2---5------7--8--5--8--2---
5---8---5--4--2---
|---2---5-----7--8--5--8--2---5------7--8--5--8--2---5------7--8--5--8--2---
5---8---5--4--2---
|---0---3--0--5--6--3--6--0---3---0--5--6--3--6--0---3---0--5--6--3--6--0---
3-0-6---3--2--0---
|
|
|Guitar II
|---------------------------------------------------------------------------
------------------
|---------------------------------------------------------------------------
------------------
|---------------------------------------------------------------------------
------------------
|---2---5-----------------2---5------------------2---5------------------2---
5---8---5--4--2---
|---2---5-----------------2---5------------------2---5------------------2---
5---8---5--4--2---
|---0---3--0--5--6--3--6--0---3---0--5--6--3--6--0---3---0--5--6--3--6--0---
3-0-6---3--2--0---


Guitar I

Riff C
|----------------------------------------------------------
|----------------------------------------------------------
|----------------------------------------------------------
|-----3--x-x------3--x--x------3--x-x------3--x--x---------
|-----3--x-x------3--x--x------3--x-x------3--x--x---------
|---0-1--x-x--x-0-1--x--x--x-0-1--x-x--x-0-1--x--x--0--0---
|
|Guitar II
|----------------------------------------------------------
|----------------------------------------------------------
|----------------------------------------------------------
|-----3-----------3------------3-----------3---------------
|-----3-----------3------------3-----------3---------------
|---0-1---------0-1----------0-1---------0-1--------0--0---



Guitar I
|--------------------------------------------------------------
|--------------------------------------------------------------
|--------------------------------------------------------------
|-----3--x-x------3--x--x------3--x-x------3--x--x-------------
|-----3--x-x------3--x--x------3--x-x------3--x--x-------------
|---0-1--x-x--x-0-1--x--x--x-0-1--x-x--x-0-1--x--x--0--0---0---
|
|Guitar II
tocas la cuerda muchas veces
|--------------------------------------------------------------
|---5-----------6------------8------------10-------------------
|--------------------------------------------------------------
|--------------------------------------------------------------
|--------------------------------------------------------------
|--------------------------------------------------------------


Guitar I

Riff D
|-------------------------------------------------
|-------------------------------------------------
|---4-3-2-2-2-2-2-2-2-2-2-------------------------
|---4-3-2-2-2-2-2-2-2-2-2-7-6-5-5-5-5-5-5-5-5-5---
|---2-1-0-0-0-0-0-0-0-0-0-7-6-5-5-5-5-5-5-5-5-5---
|-------------------------5-4-3-3-3-3-3-3-3-3-3---
|
|Guitar II
|-------------------------------------------------
|-------------------------------------------------
|---4-3-2-2-2-2-2-2-2-2-2-------------------------
|---4-3-2-2-2-2-2-2-2-2-2-7-6-5-5-5-5-5-5-5-5-5---
|---2-1-0-0-0-0-0-0-0-0-0-7-6-5-5-5-5-5-5-5-5-5---
|-------------------------5-4-3-3-3-3-3-3-3-3-3---


Guitar I
   No me veras…….
|-----------------------------------------------------
|-----------------------------------------------------
|---7-6-5-5-5-5-4-3-2-------2-------2--4-3-2--4-2-----
|---7-6-5-5-5-5-4-3-2-------2-------2--4-3-2--4-2-----
|---5-4-3-3-3-3-2-1-0--0-0--0--0-0--0--2-1-0--2-0-----
|-------------------------------------------------0---
|
|Guitar II
|-----------------------------------------------------
|-----------------------------------------------------
|---7-6-5-5-5-5-4-3-2-------2-------2--4-3-2--4-2-----
|---7-6-5-5-5-5-4-3-2-------2-------2--4-3-2--4-2-----
|---5-4-3-3-3-3-2-1-0--0-0--0--0-0--0--2-1-0--2-0-----
|-------------------------------------------------0---


Bridge

Guitar I
Riff E
|---------------------------------------------------------------------------
--|
|---------------------------------------------------------------------------
--|
|*--------------------------------------------------------------------------
-*|
|*--------5--7B--5---------------5--7B--5--------------5--7B--5--8-----5----
-*|
|-----/7------------7--------/7------------7-------/7------------8-----5----
--|
|---0------------------0--0-------------------0--0---------------6--0--3--0-
--|
|
|Guitar II
|---------------------------------------------------------------------------
--|
|---------------------------------------------------------------------------
--|
|*--------------------------------------------------------------------------
-*|
|*--------5--7B--5---------------5--7B--5--------------5--7B--5-------------
-*|
|-----/7------------7--------/7------------7-------/7------------7----------
--|
|---0------------------0--0-------------------0--0------------------0--0--0-
--|


Solo:
Ok lo bueno
|----------------------------|
|----------------------------|
|*--2--2--2--2--2--2--2--2--*|
|*--2--2--2--2--2--2--2--2--*|
|---0--0--0--0--0--0--0--0---|
|----------------------------|



Outro Solo:

Guitar I
|----------------------------------------------------------
|----------------------------------------------------------
|----------------------------------------------------------
|---------5--7-----------5--7-----------5--7-----------5---
|---7-/7-----------7-/7-----------7-/7-----------7-/7------
|---0--0--------0--0--0--------0--0--0--------0--0--0------


Guitar I
Riff F
|-------------------------------------------------
|-------------------------------------------------
|---5-5-5-5-4-3-2-------2-------2--4-3-2--4-2-----
|---5-5-5-5-4-3-2-------2-------2--4-3-2--4-2-----
|---3-3-3-3-2-1-0--0-0--0--0-0--0--2-1-0--2-0-----
|---------------------------------------------

bueno eso estoda casi no hablo espanol pero espero que se entenda 
soy mexicano pero radico aqui en la isla DEL ENCANTA   
¡VIVA EL REGGAE AND BOB MRLEY¡

Fuente original: LaCuerda
Colaborador original: MARIO FRANK [gonso666_hotmail.com]
Aviso: Este fichero es trabajo propio de su transcriptor y representa su interpretación personal de la canción. El material contenido en esta página es para exclusivo uso privado, por lo que se prohibe su reproducción o retransmisión, así como su uso para fines comerciales.

Califica esta canción


Comentarios en Facebook