Enviado por:
Anonimo

Enanitos Verdes, No Llores Por Su Amor

Imprimir
e)------10-12v---------10-12-13-----------8s10-10s12-12s13-13s15-13h12
b)------------------------------11bs-(7)------------------------------
g)--12b---------10s12b------------------------------------------------
d)--------------------------------------------------------------------
a)--------------------------------------------------------------------
E)--------------------------------------------------------------------



e)-12s13--15-13h12-12s13s--17b-17b-15--17s15-17s15s17-15------10-12v-
b)-------------------------------------------------------------------
g)--------------------------------------------------------12b--------
d)-------------------------------------------------------------------
a)-------------------------------------------------------------------
E)-------------------------------------------------------------------



e)--------10-12-12s13-12-10s12s10v---15-17-15----15------------------
b)--------------------------------------------18----18-17-18-15-17-15
g)-10s12b------------------------------------------------------------
d)-------------------------------------------------------------------
a)-------------------------------------------------------------------
E)-------------------------------------------------------------------



e)---------------------------------------12s14-12h10--12s15-14-12
b)---------------------------------------------------------------
g)-17-16-17v-------------17s19-19-19-17b-------------------------
d)-----------17s-15-15b------------------------------------------
a)---------------------------------------------------------------
E)---------------------------------------------------------------

Fuente original: LaCuerda
Colaborador original: Luis Fernando Parada Guachalla [[email protected]]
Aviso: Este fichero es trabajo propio de su transcriptor y representa su interpretación personal de la canción. El material contenido en esta página es para exclusivo uso privado, por lo que se prohibe su reproducción o retransmisión, así como su uso para fines comerciales.

Califica esta canción


Comentarios en Facebook